PrimaNota.ru - самый крупный в мире бесплатный архив песенных текстов, аккордов, табулатур и нот


Brother Firetribe - Chasing The Angels - таба, видео

Регистрация Запомнить меня
Войти через:  Facebook Google Twitter Vk Yandex Mail.ru

Brother Firetribe - Chasing The Angels - таба, видео

Печатать
Просмотров: 175
Intro lead
		pinch harmonic
e--------------------------------|
b--------------------------------|
g--7b-----7p5--------------------|
d-------------7----3ph----5------|
a--------------------------------|
D--------------------------------|

e--15b-----15p12-12-----12-12-12--13--------------12\--|
b-------------------------------------15-15----15------|
g------------------------------------------------------|
d------------------------------------------------------|
a------------------------------------------------------|
D------------------------------------------------------|


Intro rhytm

e----------------------------------|
b----------------------------------|
g--2-------------------------------|
d--2---------------3--------5------|
a--0---------------3--------5------|
D------------------3--------5------|

e----------------------------------|
b----------------------------------|
g--2-------------------------------|
d--2---------------3--------5--5---|
a--0---------------3--------5--5---|
D------------------3--------5--5---|


Verse 1

0:43
e-----------------------------------|
b----------1-1----------------------|
g--0-0-x-x-----2--------------------|
d-----------------------------------|
a-----------------------------------|
D-----------------------------------|

0:49PM..          PM..       PM..       PM..    PM  PM
e-------------------------------------------------------|
b-------------------------------------------------------|
g-------------------------------------------------------|
d--3-3-3-3--3----5-5-5-5----5-5-5------6-6-6-6---6-6-6--|
a-------------------------------------------------------|
D---------------------------------5---------------------|

Pre-chorus

e---------------------------------------|
b---------------------------------------|
g---------------------------------------|
d--3----5-------------3----5----2-------|
a--3----5-------------3----5----2-------|
D--3----5-------------3----5----2-------|

Chorus

Use PM with each single note
e--------------------------------------------------------------|
b--------------------------------------------------------------|
g--------------------------------7-----7-----7-----7-----7--7--|
d--4-----4-----4-----4-----4--4--7-----7-----7-----7-----7--7--|
a--4-----4-----4-----4-----4--4--5-5-5-5-5-5-5-5-5-5-5-5-5--5--|
D--4-4-4-4-4-4-4-4-4-4-4-4-4--4--------------------------------|

e---------------------------------------------------------|
b---------------------------------------------------------|
g--4-----4-----4-----------------4-----4-----4----7----9--|
d--2-----2-----2-----2-----2--2--4-----4-----4----7----9--|
a--2-2-2-2-2-2-2-2-2-2-----2--2--2-2-2-2-2-2-2-2--5----7--|
D--------------------2-2-2-2--2---------------------------|

e--------------------------------------------------------------|
b--------------------------------------------------------------|
g--------------------------------7-----7-----7-----7-----7--7--|
d--4-----4-----4-----4-----4--4--7-----7-----7-----7-----7--7--|
a--4-----4-----4-----4-----4--4--5-5-5-5-5-5-5-5-5-5-5-5-5--5--|
D--4-4-4-4-4-4-4-4-4-4-4-4-4--4--------------------------------|

e-----------------------------------------------------------------|
b-----------------------------------------------------------------|
g--4-----4-----4--------------------------------------------------|
d--2-----2-----2-----2-----2--2--3-----3-----3---5-----5-----5----|
a--2-2-2-2-2-2-2-2-2-2-----2--2--3-----3-----3---5-----5-----5----|
D--------------------2-2-2-2--2--3-3-3-3-3-3-3-3-5-5-5-5-5-5-5-5--|

Bridge lead
		pinch harmonic
e-------------------------------|
b-------------------------------|
g--7b-----7p5-------------------|
d-------------7----3ph----5-----|
a-------------------------------|
D-------------------------------|

Bridge rhytm

e----------------------------------|
b----------------------------------|
g--2-------------------------------|
d--2---------------3--------5------|
a--0---------------3--------5------|
D------------------3--------5------|


Verse 2 lead parts

1:35
   Pinch harmonic
e-----------------5-------------|
b-------------------------------|
g--5-2ph------2-5---------------|
d-------------------------------|
a-------------------------------|
D-------------------------------|

1:46
e-------------------|
b----------1--------|
g--0-x-x-x---2------|
d-------------------|
a-------------------|
D-------------------|

Verse 2 rhytm

  PM..  PM..  PM..  PM..  PM..   PM..  PM..  PM..  PM..  PM..
e---------------------------------------------------------------|
b---------------------------------------------------------------|
g------2-----2-----2-----2-----2------2-----2-----2-----2-----2-|
d---------------------------------------------------------------|
a--0-0---0-0---0-0---0-0---0-0----0-0---0-0---0-0---0-0---0-0---|
D---------------------------------------------------------------|
    PM..       PM..       PM..       PM..
e----------------------------------------------|
b----------------------------------------------|
g----------------------------------------------|
d--3-3-3-3----5-5-5-5----3-3-3-3---------------|
a----------------------------------------------|
D-----------------------------------5-5-5-5----|

  PM..  PM..  PM..  PM..  PM..   PM..  PM..  PM..  PM..  PM..
e---------------------------------------------------------------|
b---------------------------------------------------------------|
g------2-----2-----2-----2-----2------2-----2-----2-----2-----2-|
d---------------------------------------------------------------|
a--0-0---0-0---0-0---0-0---0-0----0-0---0-0---0-0---0-0---0-0---|
D---------------------------------------------------------------|

   PM..          PM..       PM..       PM..    PM. PM.
e---------------------------------------------------------|
b---------------------------------------------------------|
g---------------------------------------------------------|
d--3-3-3-3--3----5-5-5-5----5-5-5------6-6-6-6---6-6-6----|
a---------------------------------------------------------|
D---------------------------------5-----------------------|


Pre-chorus

e---------------------------------------|
b---------------------------------------|
g---------------------------------------|
d--3----5-------------3----5----2-------|
a--3----5-------------3----5----2-------|
D--3----5-------------3----5----2-------|

Chorus

Use PM with each single note
e--------------------------------------------------------------|
b--------------------------------------------------------------|
g--------------------------------7-----7-----7-----7-----7--7--|
d--4-----4-----4-----4-----4--4--7-----7-----7-----7-----7--7--|
a--4-----4-----4-----4-----4--4--5-5-5-5-5-5-5-5-5-5-5-5-5--5--|
D--4-4-4-4-4-4-4-4-4-4-4-4-4--4--------------------------------|

e---------------------------------------------------------|
b---------------------------------------------------------|
g--4-----4-----4-----------------4-----4-----4----7----9--|
d--2-----2-----2-----2-----2--2--4-----4-----4----7----9--|
a--2-2-2-2-2-2-2-2-2-2-----2--2--2-2-2-2-2-2-2-2--5----7--|
D--------------------2-2-2-2--2---------------------------|

e--------------------------------------------------------------|
b--------------------------------------------------------------|
g--------------------------------7-----7-----7-----7-----7--7--|
d--4-----4-----4-----4-----4--4--7-----7-----7-----7-----7--7--|
a--4-----4-----4-----4-----4--4--5-5-5-5-5-5-5-5-5-5-5-5-5--5--|
D--4-4-4-4-4-4-4-4-4-4-4-4-4--4--------------------------------|

e-----------------------------------------------------------------|
b-----------------------------------------------------------------|
g--4-----4-----4--------------------------------------------------|
d--2-----2-----2-----2-----2--2--3-----3-----3---5-----5-----5----|
a--2-2-2-2-2-2-2-2-2-2-----2--2--3-----3-----3---5-----5-----5----|
D--------------------2-2-2-2--2--3-3-3-3-3-3-3-3-5-5-5-5-5-5-5-5--|

"Bridge"

e----------|
b----------|
g--2-------|
d--2-------|
a--0-------|
D----------|


Solo
	     PM...... pinch harmonic
e----------------------------|
b-----------------1-3-5ph----|
g--1----x-1-x-2-4------------|
d----------------------------|
a----------------------------|
D----------------------------|

e--------------------12-----------|
b--10----x-10h12-12b----12b--10---|
g---------------------------------|
d---------------------------------|
a---------------------------------|
D---------------------------------|
2:45		    PM....................................
e---------------------------------------------------------|
b---------------------------------------------------------|
g---------------------------------------------------------|
d--6----7p6--------7--10-9-7-7-10-9-7-7-10-9-7-7-10-9-7-7-|
a-----------7---------------------------------------------|
D---------------------------------------------------------|

e-------------------------------|
b-------------------------------|
g-------------------------------|
d--10p9p7-10p9p7-10p9p7-10p9p7--|
a-------------------------------|
D-------------------------------|

 PM............................................................
e--------------------------------------------------------------|
b--------------------------------------------------------------|
g--------------------------------------------------------------|
d--12-11-9-9-12-11-9-9-12-11-9-9-12-11-9-9-12-11-9-9-12-11-9-9-|
a--------------------------------------------------------------|
D--------------------------------------------------------------|
PM....................
e-----------------------------------------------------------------|
b-----------------------------------------------------------------|
g------------------------10------10b--10--9---10----------12ph\---|
d--12-11-9-9-12-11-9-9----------------------------12--------------|
a-----------------------------------------------------------------|
D-----------------------------------------------------------------|

During the solo you can play like this
PM.................................................................
e------------------------------------------------------------------|
b------------------------------------------------------------------|
g------------------------------------------------------------------|
d------------------------------------------------------------------|
a----------------------------------0-0-0-0-0-0-0-0-0-0-0-0-0-0-0-0-|
D--6-6-6-6-6-6-6-6-6-6-6-6-6-6-6-6---------------------------------|
PM.................................................................
e------------------------------------------------------------------|
b------------------------------------------------------------------|
g------------------------------------------------------------------|
d------------------------------------------------------------------|
a--2-2-2-2-2-2-2-2-2-2-2-2-2-2-2-2-3-3-3-3-3-3-3-3-3-3-3-3-3-3-3-3-|
D------------------------------------------------------------------|
PM.................................................................
e------------------------------------------------------------------|
b------------------------------------------------------------------|
g------------------------------------------------------------------|
d------------------------------------------------------------------|
a----------------------------------0-0-0-0-0-0-0-0-0-0-0-0-0-0-0-0-|
D--6-6-6-6-6-6-6-6-6-6-6-6-6-6-6-6---------------------------------|
PM................................
e--------------------------------------------------------------------|
b--------------------------------------------------------------------|
g--------------------------------------------------------------------|
d----------------------------------3----------------5----------------|
a--2-2-2-2-2-2-2-2-2-2-2-2-2-2-2-2-3----------------5----------------|
D----------------------------------3----------------5----------------|

Chorus

silence and then starts with these

Use PM with each single note
e-------------------------------------------------------|
b-------------------------------------------------------|
g--------------------------4-----4-----4----------------|
d--------------------------2-----2-----2-----2-----2--2-|
a--------------------------2-2-2-2-2-2-2-2-2-2-----2--2-|
D--------------------------------------------2-2-2-2--2-|

e-----------------------------|
b-----------------------------|
g--4-----4-----4----7----9----|
d--4-----4-----4----7----9----|
a--2-2-2-2-2-2-2-2--5----7----|
D-----------------------------|

e--------------------------------------------------------------|
b--------------------------------------------------------------|
g--------------------------------7-----7-----7-----7-----7--7--|
d--4-----4-----4-----4-----4--4--7-----7-----7-----7-----7--7--|
a--4-----4-----4-----4-----4--4--5-5-5-5-5-5-5-5-5-5-5-5-5--5--|
D--4-4-4-4-4-4-4-4-4-4-4-4-4--4--------------------------------|

e---------------------------------------------------------|
b---------------------------------------------------------|
g--4-----4-----4-----------------4-----4-----4----7----9--|
d--2-----2-----2-----2-----2--2--4-----4-----4----7----9--|
a--2-2-2-2-2-2-2-2-2-2-----2--2--2-2-2-2-2-2-2-2--5----7--|
D--------------------2-2-2-2--2---------------------------|

3:21 Lead part goes like this

       pinch harmonic
e-----------------------------|
b-----------------------------|
g--12ph--11ph--7ph-----9ph----| and some whammy bar
d-----------------------------| with the last note
a-----------------------------|
D-----------------------------|

And then chorus again

Use PM with each single note
e--------------------------------------------------------------|
b--------------------------------------------------------------|
g--------------------------------7-----7-----7-----7-----7--7--|
d--4-----4-----4-----4-----4--4--7-----7-----7-----7-----7--7--|
a--4-----4-----4-----4-----4--4--5-5-5-5-5-5-5-5-5-5-5-5-5--5--|
D--4-4-4-4-4-4-4-4-4-4-4-4-4--4--------------------------------|

e---------------------------------------------------------|
b---------------------------------------------------------|
g--4-----4-----4-----------------4-----4-----4----7----9--|
d--2-----2-----2-----2-----2--2--4-----4-----4----7----9--|
a--2-2-2-2-2-2-2-2-2-2-----2--2--2-2-2-2-2-2-2-2--5----7--|
D--------------------2-2-2-2--2---------------------------|

e--------------------------------------------------------------|
b--------------------------------------------------------------|
g--------------------------------7-----7-----7-----7-----7--7--|
d--4-----4-----4-----4-----4--4--7-----7-----7-----7-----7--7--|
a--4-----4-----4-----4-----4--4--5-5-5-5-5-5-5-5-5-5-5-5-5--5--|
D--4-4-4-4-4-4-4-4-4-4-4-4-4--4--------------------------------|

e--------------------------------|
b--------------------------------|
g--4-----4-----4-----------------|
d--2-----2-----2-----2-----2--2--|
a--2-2-2-2-2-2-2-2-2-2-----2--2--|
D--------------------2-2-2-2--2--|


This one twice
    PM..  PM..  PM. PM..  PM..  PM.....  PM..  PM..  PM..  PM..  PM.
e--------------------------------------------------------------------|
b--------------------------------------------------------------------|
g---------------------------------------2-----2-----2-----2-----2----|
d--3-----3-----3---5-----5-----5-------------------------------------|
a--3-----3-----3---5-----5-----5----0-0---0-0---0-0---0-0---0-0---0--|
D--3-3-3-3-3-3-3-3-5-5-5-5-5-5-5-5-----------------------------------|

Ending

e------------------------------------------------------------------|
b------------------------------------------------------------------|
g--------------------------------2---------------------------------|
d--3--------------5--------------2---------------------------------|
a--3--------------5--------------0---------------------------------|
D--3--------------5------------------------------------------------|


Tabbed by Wasuri93
Check out also my videos at Youtube
Добавлено: 15.06.2012
Другие материалы по этой песне:
  • Аккорды и текст

Страница создана 15.06.2012
http://primanota.ru/brother-firetribe/chasing-the-angels-chords.htm
Привет, Гость.
Предлагаем пройти революционный курс по гитаре.
Подарок от PrimaNota.Ru, забирай!