PrimaNota.ru - самый крупный в мире бесплатный архив песенных текстов, аккордов, табулатур и нот


Brother Firetribe - Break Out - таба, видео

Регистрация Запомнить меня
Войти через:  Facebook Google Twitter Vk Yandex Mail.ru

Brother Firetribe - Break Out - таба, видео

Печатать
Просмотров: 244
Intro

e----------------------------------------------------------------------------|
b----------------------------------------------------------------------------|
g-------------------------------2--------------------------------------------|
d--2-------------0--------------0--------------5--------------2--------------|
a--2-------------0--------------0--------------5--------------2--------------|
D--2-------------0-----------------------------5--------------2--------------|


 PM.................................................................
 e------------------------------------------------------------------|
 b------------------------------------------------------------------|
 g------------------------------------------------------------------|
:d------------------------------------------------------------------|
 a------------------------------------------------------------------|
 D--2-2-2-2-2-2-2-2-2-2-2-2-2-2-2-2-0-0-0-0-0-0-0-0-0-0-0-0-0-0-0-0-|

PM.........................................................
e--------------------------------------------------------------------|
b--------------------------------------------------------------------|
g--------------------------------------------------------------------|
d----------------------------------------------------------5----0----| x2
a--0-0-0-0-0-0-0-0-0-0-0-0---------------------------------5----0----|
D--------------------------5-5-5-5-2-2-2-2-2-2-2-2-2-2-2-2-5----0----|


0:48 Lead part goes like this
e-----------------------------------------------/10--10b--|
b--/8--8-8----7\5--7--7/8-----7\5--7--7/8-----------------|
g---------------------------------------------------------|
d---------------------------------------------------------|
a---------------------------------------------------------|
D---------------------------------------------------------|

Verse
PM.................................................................
e------------------------------------------------------------------|
b------------------------------------------------------------------|
g------------------------------------------------------------------|
d------------------------------------------------------------------|
a------------------------------------------------------------------|
D--2-2-2-2-2-2-2-2-2-2-2-2-2-2-2-2-2-2-2-2-2-2-2-2-2-2-2-2-2-2-2-2-|
PM..........................................................
e---------------------------------------------------------------------|
b---------------------------------------------------------------------|
g---------------------------------------------------------------------|
d-----------------------------------------------------------5----0----|
a-----------------------------------------------------------5----0----|
D--0-0-0-0-0-0-0-0-0-0-0-0-0-0-0-0--2-2-2-2-2-2-2-2-2-2-2-2-5----0----|
PM.................................................................
e------------------------------------------------------------------|
b------------------------------------------------------------------|
g------------------------------------------------------------------|
d------------------------------------------------------------------|
a------------------------------------------------------------------|
D--2-2-2-2-2-2-2-2-2-2-2-2-2-2-2-2-2-2-2-2-2-2-2-2-2-2-2-2-2-2-2-2-|
PM.........................................................
e--------------------------------------------------------------------|
b--------------------------------------------------------------------|
g---------------------------------------------------------------2----|
d----------------------------------------------------------5----2----|
a----------------------------------0-0-0-0-0-0-0-0-0-0-0-0-5----0----|
D--0-0-0-0-0-0-0-0-0-0-0-0-0-0-0-0-------------------------5---------|

Pre-chorus

e-------------------------------------------------------|
b-------------------------------------------------------|
g--4------------2----------------------------------2----|
d--4------------2------------2----------------5----2----|
a--2------------0------------2----------------5----0----|
D----------------------------2----------------5---------|

e------------------------------------------------------|
b------------------------------------------------------|
g--4------------2------------5------------7------------|
d--4------------2------------5------------7------------|
a--2------------0------------3------------5------------|
D------------------------------------------------------|

Chorus
	   PM.......        PM...  PM.   PM............................
e----------------------------------------------------------------------|
b----------------------------------------------------------------------|
g--------------------2------------2---5--------------------------------|
d--0----2------------0------------0---5--------------------------------| x4
a--0----2------------0------------0---3----3-3-3-3-3-3-5-5-5-5-5-5-5-5-|
D--0----2----2-2-2-2----------0-0---0----------------------------------|

Verse 2
PM.................................................................
e------------------------------------------------------------------|
b------------------------------------------------------------------|
g------------------------------------------------------------------|
d------------------------------------------------------------------|
a------------------------------------------------------------------|
D--2-2-2-2-2-2-2-2-2-2-2-2-2-2-2-2-2-2-2-2-2-2-2-2-2-2-2-2-2-2-2-2-|
PM..........................................................
e---------------------------------------------------------------------|
b---------------------------------------------------------------------|
g---------------------------------------------------------------------|
d-----------------------------------------------------------5----0----|
a-----------------------------------------------------------5----0----|
D--0-0-0-0-0-0-0-0-0-0-0-0-0-0-0-0--2-2-2-2-2-2-2-2-2-2-2-2-5----0----|
PM.................................................................
e------------------------------------------------------------------|
b------------------------------------------------------------------|
g------------------------------------------------------------------|
d------------------------------------------------------------------|
a------------------------------------------------------------------|
D--2-2-2-2-2-2-2-2-2-2-2-2-2-2-2-2-2-2-2-2-2-2-2-2-2-2-2-2-2-2-2-2-|
PM.........................................................
e--------------------------------------------------------------------|
b--------------------------------------------------------------------|
g---------------------------------------------------------------2----|
d----------------------------------------------------------5----2----|
a----------------------------------0-0-0-0-0-0-0-0-0-0-0-0-5----0----|
D--0-0-0-0-0-0-0-0-0-0-0-0-0-0-0-0-------------------------5---------|

Pre-chorus

e-------------------------------------------------------|
b-------------------------------------------------------|
g--4------------2----------------------------------2----|
d--4------------2------------2----------------5----2----|
a--2------------0------------2----------------5----0----|
D----------------------------2----------------5---------|

e------------------------------------------------------|
b------------------------------------------------------|
g--4------------2------------5------------7------------|
d--4------------2------------5------------7------------|
a--2------------0------------3------------5------------|
D------------------------------------------------------|


Chorus
	   PM.......        PM...  PM.   PM............................
e----------------------------------------------------------------------|
b----------------------------------------------------------------------|
g--------------------2------------2---5--------------------------------|
d--0----2------------0------------0---5--------------------------------| x4
a--0----2------------0------------0---3----3-3-3-3-3-3-5-5-5-5-5-5-5-5-|
D--0----2----2-2-2-2----------0-0---0----------------------------------|


Interlude
      PM...................................................
e---------------------------------------------------------------------|
b---------------------------------------------------------------------|
g--5------------------------------------------------------------------|
d--5--------------------------------------------------------5----0----|
a--3----3-3-3-3-3-3-5-5-5-5-5-5-5-5-------------------------5----0----|
D-----------------------------------2-2-2-2-2-2-2-2-2-2-2-2-5----0----|
      PM...................................................
e----------------------------------------------------------------|
b----------------------------------------------------------------|
g--5-------------------------------------------------------------|
d--5--------------------------------------------------------5----|
a--3----3-3-3-3-3-3-----------------2-2-2-2-2-2-2-2-2-2-2-2-5----|
D-------------------0-0-0-0-0-0-0-0-------------------------5----|

Solo

e--12------------x-x-10-------------------------------------------|
b--15b------------------8-7---------------------------------8p5---|
g---------------------------9-7--------7\4-4h7-----7--------------|
d-------------------------------7-9------------7p5---7------------|
a-----------------------------------------------------------------|
D-----------------------------------------------------------------|
sry I didn't get the last part :)


During the solo you can play:

e-------------------------------------------------|
b-------------------------------------------------|
g-------------------2-----------------------------|
d--2----------------0-------5----------0----------| x2
a--2----------------0-------3----------0----------|
D--2------------------------5----------0----------|


Chorus
	   PM.......        PM...  PM.   PM............................
e----------------------------------------------------------------------|
b----------------------------------------------------------------------|
g--------------------2------------2---5--------------------------------|
d--0----2------------0------------0---5--------------------------------| x4
a--0----2------------0------------0---3----3-3-3-3-3-3-5-5-5-5-5-5-5-5-|
D--0----2----2-2-2-2----------0-0---0----------------------------------|

Lead parts

4:16  Pinch harmonic and bend
e---------------5----|
b--7/8-4b+ph---------|
g--------------------|
d--------------------|
a--------------------|
D--------------------|

4:21		     use whammy bar here
e--/12--15p10/12----------12------------|
b-------------------------15------------|
g---------------------------------------|
d---------------------------------------|
a---------------------------------------|
D---------------------------------------|

4:29  Pinch harmonic and bend
e--14b+ph--12-14-15-17-17/19---|
b------------------------------|
g------------------------------|
d------------------------------|
a------------------------------|
D------------------------------|


Ending

e---------------------------|
b---------------------------|
g---------------------------|
d--2--2---------------------|
a--2--2---------------------|
D--2--2---------------------|


Tabbed by Wasuri93
Check out also my videos at Youtube
Добавлено: 21.02.2012
Другие материалы по этой песне:
  • Аккорды и текст

Страница создана 21.02.2012
http://primanota.ru/brother-firetribe/break-out-chords.htm
Привет, Гость.
Предлагаем пройти революционный курс по гитаре.
Подарок от PrimaNota.Ru, забирай!