PrimaNota.ru - самый крупный в мире бесплатный архив песенных текстов, аккордов, табулатур и нот


Brother Cane - Wishpool - таба, видео

Регистрация Запомнить меня
Войти через:  Facebook Google Twitter Vk Yandex Mail.ru

Brother Cane - Wishpool - таба, видео

Печатать
Просмотров: 119
Wishpool

~    =  vibrato (shake note as if with whammy bar)
+    =  bend for appropiate pitchshifts
h    =  hammer on following note then release back to original

Opens with this note
getting louder          Very faints notes in the Intro while drums play
|------|	 	|------------------------------|
|------| 		|------------------------------|
|------| 		|-----0---0------0-------0-----|
|-5----| 		|-0-----0---0------0-------0---|
|------| 		|---0----------0-------0-------|
|------| 		|------------------------------|

Intro
    +~
|--------------------------------------------------------|
|--------------------------------------------------------|
|-0h2--h0---0h2--0h2h0-0h2h0-0h2h0-----------------------| play 8 times
|--------------------------------------------------------|
|--------------------------------------------------------|
|--------------------------------------------------------|

2nd guitar in Intro                
				 D
|--------------------------------------------------------|
|---5-5--5-5-5-5-5-5---5-5/3--3-3-3-3-3-3----------------|
|-0h4-4--4-4-4-4-4-4---4-4/2--2-2-2-2-2-2----------------| play 3 times
|-0h2-2--2-2-2-2-2-2---2-2/0--0-0-0-0-0-0----------------|
|--------------------------------------------------------|
|--------------------------------------------------------|

2nd guitar in Intro (4th time playing)
|-------------------------------------------------------|
|---5-5--5-5-5-5-5-5---5-5/3--3-3-3/8-8-8-8-------------|
|-0h4-4--4-4-4-4-4-4---4-4/2--2-2-2/7-7-7-7-------------|
|-0h2-2--2-2-2-2-2-2---2-2/0--0-0-0/5-5-5-5-------------|
|-------------------------------------------------------|
|-------------------------------------------------------|

Verse 1
|--------------------------------------------------------|
|-5--5--5---5-5--5-5--5-5-5------------------------------|
|-4--4--4---4-4--4-4--4-4-4------------------------------|
|-2--2--2---2-2--2-2--2-2-2------------------------------|
|--------------------------------------------------------|
|--------------------------------------------------------|
 From the bottom... (play 3 times during this line)
 Hiding everything... (play once during this line)
 And your sins... (play 3 times during this line)

Chorus
     G                 Bb           Fm	          Eb
|-------------------------------------------------------------|
|-------------------------------------------------------------|
|---------------3--3--3-3-3-3----------------8--8--8-8-8-8----|
|-5--5--5-5-5-0-3--3--3-3-3-3--3--3--3-3-3-0-8--8--8-8-8-8----|
|-5--5--5-5-5-0-1--1--1-1-1-1--3--3--3-3-3-0-6--6--6-6-6-6----|
|-3--3--3-3-3------------------1--1--1-1-1--------------------|
 Can't get...		      Feeling..

2nd guitar
|-3---3------3---3---------------3---3------3---3--------|
|---3---3------3---3---------------3---3------3---3------|
|--------------------------------------------------------|
|--------------------------------------------------------|
|--------------------------------------------------------|
|--------------------------------------------------------|

      G              Bb             F         Eb  D C
|----------------------------------------------------------|
|----------------------------------------------------------|
|---------------3--3--3-3-3-3----------------8--8-7-5/0----|
|-5--5--5-5-5-0-3--3--3-3-3-3--3--3--3-3-3-0-8--8-7-5/0----|
|-5--5--5-5-5-0-1--1--1-1-1-1--3--3--3-3-3-0-6--6-5-3/0----|
|-3--3--3-3-3------------------1--1--1-1-1-----------------|
 Can't get...		      Knowing..

2nd guitar
|-3---3------3---3---------------3---3------3---3--------|
|---3---3------3---3---------------3---3------3---3------|
|--------------------------------------------------------|
|--------------------------------------------------------|
|--------------------------------------------------------|
|--------------------------------------------------------|

Play Intro part
    +~
|--------------------------------------------------------|
|--------------------------------------------------------|
|-0h2--h0---0h2--0h2h0-0h2h0-0h2h0-----------------------| play 4 times
|--------------------------------------------------------|
|--------------------------------------------------------|
|--------------------------------------------------------|
 A new lie..
 A new lie..
 
2nd guitar in Intro
|--------------------------------------------------------|
|---5-5--5-5-5-5-5-5---5-5/3--3-3-3-3-3-3----------------|
|-0h4-4--4-4-4-4-4-4---4-4/2--2-2-2-2-2-2----------------| play 2 times
|-0h2-2--2-2-2-2-2-2---2-2/0--0-0-0-0-0-0----------------|
|--------------------------------------------------------|
|--------------------------------------------------------|

Verse 2 (guitar bits)
   +(bends 1 and half step and slowly releases to original position)
|--------------------------------------------------------|
|--------------------------------------------------------|
|--------------------------------------------------------|
|--4-----------------------------------------------------|
|--------------------------------------------------------|
|--------------------------------------------------------|
 Walking..
 Maybe you..

|--------------------------------------------------------|
|-5--5--5---5-5--5-5--5-5-5------------------------------|
|-4--4--4---4-4--4-4--4-4-4------------------------------|
|-2--2--2---2-2--2-2--2-2-2------------------------------|
|--------------------------------------------------------|
|--------------------------------------------------------|
 Bitter tone... (play 3 times during this line)
 I sting... (play once during this line)
 And your pride... (play 3 times during this line)

Chorus
      G                 Bb          Fm            Eb
|-------------------------------------------------------------|
|-------------------------------------------------------------|
|---------------3--3--3-3-3-3----------------8--8--8-8-8-8----|
|-5--5--5-5-5-0-3--3--3-3-3-3--3--3--3-3-3-0-8--8--8-8-8-8----|
|-5--5--5-5-5-0-1--1--1-1-1-1--3--3--3-3-3-0-6--6--6-6-6-6----|
|-3--3--3-3-3------------------1--1--1-1-1--------------------|
 Can't get...		      Feeling..

2nd guitar
|-3---3------3---3---------------3---3------3---3--------|
|---3---3------3---3---------------3---3------3---3------|
|--------------------------------------------------------|
|--------------------------------------------------------|
|--------------------------------------------------------|
|--------------------------------------------------------|

      G                 Bb          Fm            Eb
|-----------------------------------------------------------|
|-----------------------------------------------------------|
|---------------3--3--3-3-3-3----------------8--8-8-8-8-8---|
|-5--5--5-5-5-0-3--3--3-3-3-3--3--3--3-3-3-0-8--8-8-8-8-8---|
|-5--5--5-5-5-0-1--1--1-1-1-1--3--3--3-3-3-0-6--6-6-6-6-6---|
|-3--3--3-3-3------------------1--1--1-1-1------------------|
 Can't get...		      Knowing..

2nd guitar
|-3---3------3---3---------------3---3------3---3--------|
|---3---3------3---3---------------3---3------3---3------|
|--------------------------------------------------------|
|--------------------------------------------------------|
|--------------------------------------------------------|
|--------------------------------------------------------|

Interlude
   D   C#
|----------------------------|
|----------8-----------------|
|--7---6---7-----------------| play once before lyrics
|--7---6---5-----------------|
|--5---4---------------------|
|----------------------------|
 I hear..
 I hear..

2nd guitar during interlude     Ending note on 3rd time
     D     C
|----------------------------| |----------------------------|
|----------------------------| |----------------------------|
|--7---7---5-----------------| |-/19------------------------|
|--7---7---5-----------------| |-/19------------------------|
|--5---5---3-----------------| |-/17------------------------|
|----------------------------| |----------------------------|

Play Intro part
    +~
|--------------------------------------------------------|
|--------------------------------------------------------|
|-0h2--h0---0h2--0h2h0-0h2h0-0h2h0-----------------------| play 6 times
|--------------------------------------------------------|
|--------------------------------------------------------|
|--------------------------------------------------------|
 A new lie..
 A new lie..
 A new lie 

2nd guitar in Intro
|--------------------------------------------------------|
|---5-5--5-5-5-5-5-5---5-5/3--3-3-3-3-3-3----------------|
|-0h4-4--4-4-4-4-4-4---4-4/2--2-2-2-2-2-2----------------| play 3 times
|-0h2-2--2-2-2-2-2-2---2-2/0--0-0-0-0-0-0----------------|
|--------------------------------------------------------|
|--------------------------------------------------------|

Chorus
      G                 Bb          Fm            Eb
|-------------------------------------------------------------|
|-------------------------------------------------------------|
|---------------3--3--3-3-3-3----------------8--8--8-8-8-8----|
|-5--5--5-5-5-0-3--3--3-3-3-3--3--3--3-3-3-0-8--8--8-8-8-8----|
|-5--5--5-5-5-0-1--1--1-1-1-1--3--3--3-3-3-0-6--6--6-6-6-6----|
|-3--3--3-3-3------------------1--1--1-1-1--------------------|
 Can't get...		      Feeling..

2nd guitar
|-3---3------3---3---------------3---3------3---3--------|
|---3---3------3---3---------------3---3------3---3------|
|--------------------------------------------------------|
|--------------------------------------------------------|
|--------------------------------------------------------|
|--------------------------------------------------------|

      G                 Bb          Fm            Eb
|-----------------------------------------------------------|
|-----------------------------------------------------------|
|---------------3--3--3-3-3-3----------------8--8-8-8-8-8---|
|-5--5--5-5-5-0-3--3--3-3-3-3--3--3--3-3-3-0-8--8-8-8-8-8---|
|-5--5--5-5-5-0-1--1--1-1-1-1--3--3--3-3-3-0-6--6-6-6-6-6---|
|-3--3--3-3-3------------------1--1--1-1-1------------------|
 Can't get...		      Knowing..

2nd guitar
|-3---3------3---3---------------3---3------3---3--------|
|---3---3------3---3---------------3---3------3---3------|
|--------------------------------------------------------|
|--------------------------------------------------------|
|--------------------------------------------------------|
|--------------------------------------------------------|

      G                 Bb          Fm            Eb
|-------------------------------------------------------------|
|-------------------------------------------------------------|
|---------------3--3--3-3-3-3----------------8--8--8-8-8-8----|
|-5--5--5-5-5-0-3--3--3-3-3-3--3--3--3-3-3-0-8--8--8-8-8-8----|
|-5--5--5-5-5-0-1--1--1-1-1-1--3--3--3-3-3-0-6--6--6-6-6-6----|
|-3--3--3-3-3------------------1--1--1-1-1--------------------|
 Can't get...		      Feeling..

2nd guitar
|-3---3------3---3---------------3---3------3---3--------|
|---3---3------3---3---------------3---3------3---3------|
|--------------------------------------------------------|
|--------------------------------------------------------|
|--------------------------------------------------------|
|--------------------------------------------------------|

      G                 Bb          Fm            Eb
|-------------------------------------------------------------|
|-------------------------------------------------------------|
|---------------3--3--3-3-3-3----------------8--8--8-8-8-8----|
|-5--5--5-5-5-0-3--3--3-3-3-3--3--3--3-3-3-0-8--8--8-8-8-8----|
|-5--5--5-5-5-0-1--1--1-1-1-1--3--3--3-3-3-0-6--6--6-6-6-6----|
|-3--3--3-3-3------------------1--1--1-1-1--------------------|
 Can't get...		      Can't get away

2nd guitar
|-3---3------3---3---------------3---3------3---3--------|
|---3---3------3---3---------------3---3------3---3------|
|--------------------------------------------------------|
|--------------------------------------------------------|
|--------------------------------------------------------|
|--------------------------------------------------------|

Play Intro part
    +~
|--------------------------------------------------------|
|--------------------------------------------------------|
|-0h2--h0---0h2--0h2h0-0h2h0-0h2h0-----------------------| play 12 times
|--------------------------------------------------------|
|--------------------------------------------------------|
|--------------------------------------------------------|
 A new lie..
 A new lie..
 A new lie..
 A new lie.. 
 A new lie..
 A new lie..

2nd guitar in Intro
|--------------------------------------------------------|
|---5-5--5-5-5-5-5-5---5-5/3--3-3-3-3-3-3----------------|
|-0h4-4--4-4-4-4-4-4---4-4/2--2-2-2-2-2-2----------------| play 4 times
|-0h2-2--2-2-2-2-2-2---2-2/0--0-0-0-0-0-0----------------|
|--------------------------------------------------------|
|--------------------------------------------------------|

2nd guitar rest of song
|-5----5---5------5---5---5---5--------------------------|
|---5----5---5------5---5---5---5------------------------|
|--------------------------------------------------------|
|--------------------------------------------------------|
|--------------------------------------------------------|
|--------------------------------------------------------|

I borrowed this from the fansite.
Добавлено: 21.03.2012
Другие материалы по этой песне:
  • Аккорды и текст

Страница создана 21.03.2012
http://primanota.ru/brother-cane/wishpool-chords.htm
Привет, Гость.
Предлагаем пройти революционный курс по гитаре.
Подарок от PrimaNota.Ru, забирай!