PrimaNota.ru - самый крупный в мире бесплатный архив песенных текстов, аккордов, табулатур и нот


Brother Cane - And Fools Shine On - таба, бас-таба, видео

Регистрация Запомнить меня
Войти через:  Facebook Google Twitter Vk Yandex Mail.ru

Brother Cane - And Fools Shine On - таба, бас-таба, видео

Печатать
Просмотров: 127
 This song is tuned down a half step.
****************************************************************************
Chords:

  F#     E
|-0---|-0---|
|-0---|-0---|
|-4---|-0---|
|-0---|-2---|
|-4---|-2---|
|-2---|-0---|
****************************************************************************

Intro:

e|----0---|
b|---0-0--|
g|--2---2-|
d|-4------| repeat 4x
a|--------|
e|--------|


Verses 
 F#     E
|-0---|-0---|
|-0---|-0---|
|-4---|-0---|
|-0---|-2---|
|-4---|-2---|
|-2---|-0---|

Chorus

  F#. . . G# .  E E(keep the E going)F#. . . G# .  E E
|-------------------0------------------------------------0-----|
|-------------------0------------------------------------0-----|
|-------------------1------------------------------------1-----|
|-4-4-4-4-----------2------------------4-4-4-4-----------2-----|
|-4-4-4-4-----------2------------------4-4-4-4-----------2-----|
|-2-2-2-2-4bb-4bb-0-0------------------2-2-2-2-4bb-4bb-0-0-----|
                   and fools shine on

              Repeat through out the chorus
****************************************************************************



****************************************************************************

| /   slide up
| \   slide down
| h   hammer-on
| p   pull-off
| ~   vibrato
| +   harmonic
| x   Mute note
| b   Bend
| pb  Pre-bend
| br  Bend release
| pbr Pre-bend release
| brb Bend release bend

****************************************************************************
Добавлено: 19.07.2012
Другие материалы по этой песне:

Страница создана 20.03.2012
http://primanota.ru/brother-cane/and-fools-shine-on-chords.htm
Привет, Гость.
Предлагаем пройти революционный курс по гитаре.
Подарок от PrimaNota.Ru, забирай!