PrimaNota.ru - самый крупный в мире бесплатный архив песенных текстов, аккордов, табулатур и нот


Brooks Williams - Before Coffee - аккорды и текст, таба, видео

Регистрация Запомнить меня
Войти через:  Facebook Google Twitter Vk Yandex Mail.ru

Brooks Williams - Before Coffee - аккорды и текст, таба, видео

Печатать
Просмотров: 127
Before Coffee
Brooks Williams
		   Artist: Brooks Williams
Song:  Before Coffee
Album: Back to Mercy
Transcription By: Darren Fontaine

I didn't have time to break down the music into measures.
Please send corrections / comments to: darren.fontaine@compudata.com

ENJOY! ... Darren

# = HARMONICS
p = PULL
h = HAMMER
B = BEND
s = SLIDE
A = ARPEGGIO
^ = STRUM DOWN
 = STRUM UP
C = CHOKE
V = VERBRATTO
P = PINCH

                  Fast!-------------------------------------------------
    #   #         Repeat x8
1
D|--12--7-------|----0----0-|----0----0----0-----0-----0-----0----0----0-|
A|--12--7-------|-0h5--0h7--|-0h5--0h7--0h9--0h10--0h12--0h10--0h9--0h7--|
G|--12--7-------|-----------|--------------------------------------------|
D|--12--7-------|-----------|--------------------------------------------|
A|--12--7-------|-----------|--------------------------------------------|
D|--12--7-------|-----------|--------------------------------------------|

                                                Repeat x9
2                                              Slow at End
D|----0----0----0-----0-----0-----0----0----0-|----0----0-|
A|-0h5--0h7--0h8--0h10--0h12--0h10--0h8--0h7--|-0h5--0h4--|
G|--------------------------------------------|-----------|
D|--------------------------------------------|-----------|
A|--------------------------------------------|-----------|
D|--------------------------------------------|-----------|

3               B
D|----0----0----------|
A|-0h5--0h4---0h4-----|
G|--------------------|
D|--------------------|
A|--------------------|
D|--------------------|

Medium Tempo
4
D|-----0-0-----0-----0-----0---0-----0-----0---0-------0---------|
A|---1-------1-----1-----1---------1-----1-----------1-------1---|
G|-3-------3-----2-----2-----2---0-----0-----0-----0-------0---0-|
D|-----------------------------------------------4-------4-------|
A|---------------------------------------------------------------|
D|---------------------------------------------------------------|

5
D|-----0-0-------------0-------0---------0-----0---|
A|-------------1---------1-------1-----1---------1-|
G|---0-------0---0---0-------0-------0-------0-----|
D|-3-------3-------0-------0-----------------------|
A|---------------------------------3-------3-------|
D|-------------------------------------------------|

6
D|---------0------------------0-------------------------------|
A|-------3-----3------------0-----3---------------------------|
G|-----0---------0--------0---------0-------------------------|
D|---3-------------3----2-------------0-0-0-0-0s7s8s7s8s7s8s7-|
A|-1---------1--------0---------0-----------------------------|
D|------------------------------------------------------------|

7     ^   >C  ^   >C    A
D|----6p0-0---6p0-0-------------------|
A|----7s8-8---7s8-8----10s8----10s8---|
G|----6s7-7---6s7-7-----9s7-----9s7---|
D|----0-------0---------0-------0-----|
A|-0--0-------0---------0-------0---0-|
D|-0--0-------0---------0---0-0-0---0-|

8   ^   >C  ^   >C          >
D|--6p0-0---6p0-0-----------7------|
A|--7s8-8---7s8-8---0-------8------|
G|--6s7-7---6s7-7---------6--------|
D|--0-------0-----------7----------|
A|--0-------0---------0------------|
D|--0-------0----------------------| REPEAT SECTION 7

9   A       V
D|------------------------3------------------|
A|-12-11-10-8-------------4------------------|
G|-10-------------------2--------------------|
D|--0-----------------2----------------------|
A|--0------------5s-0------------------------|
D|--0----------------------------------------|

Section 7,8,7

10  A       V      P  P  P P P P P P   P
D|-------------------------------------------|
A|-12-11-10-8--------------------------------|
G|-10----------------------------------------|
D|--0------------s12-12-10-8-7-5-3-2s3-0-----|
A|--0----------------------------------------|
D|--0------------s12-12-10-8-7-5-3-2s3-0-----|

11                               P   P
D|------------7-6-5h6p5---5-6-7---------|
A|-------8p5------------7--------8s7-5--|
G|-----5--------------------------------|
D|--s7----------------------------------|
A|-------------------------------8s7-5--|
D|--------------------------------------| Repeat Twice

12  P     P     P
D|--5-3-0-3-2-0-2-0------------0--------|
A|------------------3--------3----------|
G|-------------------------1------------|
D|-----------------------2--------------|
A|---------------------0----------------|
D|--5-----3-----2-----------------------| Repeat Sections 7,8,7,10

13                               B
D|-0-0-0-0--0--0--0--0---0-0-0-0---------0---|
A|--5-5-5-5--3--2--0------5-5-5--7-7-7-7---0-|
G|-------------------------------------------|
D|---------------------0---------------------|
A|---------------------0---------------------|
D|---------------------0---------------------|

14
D|-----------------7-----9-----------------9-----11-|
A|-----------7---6-----8-------------9---8-----10---|
G|-----7---6---5-----7---------9---8---7-----9------|
D|---6---5-------------------8---7------------------|
A|-5-----------------------7------------------------|
D|--------------------------------------------------|

15
D|----------------------11-----11-----11------11s0--|
A|--------------11---10-----10-----10------10---s0--|
G|------11---10----9------9------9-------9------s0--|
D|---10----9----------------------------------------|
A|-9------------------------------------------------|
D|--------------------------------------------------|

Repeat Sections 7,8,7,9,7,8,7,
16                      B
D|-15-12-------------------------------------------
A|-12----15-12-10-8-10-10-10-8---------------------
G|-10--------------------------7-------------------
D|--0----------------------------------------------
A|--0----------------------------------------------
D|--0----------------------------------------------

17                                      ^
D|-----------------------------10------12---------|
A|----------------------12---10--------12---------|
G|---------------10---12---10----------10---------|
D|--0-----12---10---12------------------0---------|
A|------12---10-------------------------0---------|
D|----12----------------------------0---0---------|     
Добавлено: 24.06.2013
Другие материалы по этой песне:
  • Аккорды и текст

Страница создана 19.04.2012
http://primanota.ru/brooks-williams/before-coffee-chords.htm
Привет, Гость.
Предлагаем пройти революционный курс по гитаре.
Подарок от PrimaNota.Ru, забирай!