PrimaNota.ru - самый крупный в мире бесплатный архив песенных текстов, аккордов, табулатур и нот


Brooks Ritter - Rock Of Ages - бас-таба, видео

Регистрация Запомнить меня
Войти через:  Facebook Google Twitter Vk Yandex Mail.ru

Brooks Ritter - Rock Of Ages - бас-таба, видео

Печатать
Просмотров: 85
http://brooksrittermusic.com/
A little simplified

G|--------|--------|--------|--------|--------|--------|--------|--------|
D|--------|--------|----0---|2-------|2-------|2------/|6-------|6-------|
A|4-------|4-----4-|4-------|--------|--------|--------|--------|--------|
E|--------|--------|--------|--------|--------|--------|--------|--------|

G|--------|--------|--------|--------|--------|--------|--------|--------|
D|6-------|8-------|8-------|--------|--------|--------|----0---|2-------|
A|--------|--------|--------|9------\|4-------|4-----4-|4-------|--------|
E|--------|--------|--------|--------|--------|--------|--------|--------|

G|--------|--------|--------|--------|--------|--------|--------|--------|
D|2-------|2------/|6-------|6-------|8-------|8-------|--------|--------|
A|--------|--------|--------|--------|--------|--------|7-------|--------|
E|--------|--------|--------|--------|--------|--------|--------|--------|
Добавлено: 29.11.2013
Другие материалы по этой песне:
  • Аккорды и текст

Страница создана 29.11.2013
http://primanota.ru/brooks-ritter/rock-of-ages-chords.htm
Привет, Гость.
Предлагаем пройти революционный курс по гитаре.
Подарок от PrimaNota.Ru, забирай!