PrimaNota.ru - самый крупный в мире бесплатный архив песенных текстов, аккордов, табулатур и нот


Brooke Fraser - The Theif - таба, видео

Регистрация Запомнить меня
Войти через:  Facebook Google Twitter Vk Yandex Mail.ru

Brooke Fraser - The Theif - таба, видео

Печатать
Просмотров: 174
Уроки эстрадного вокала в Санкт-Петербурге
The other tab of this song was completely wrong. haha,
so i tabbed it myself
and it's 100% accurate.
myspace.com/belle_ybutton

Capo on 4th fret
*tab is relative to capo


Intro
e----2-2------2-2-------5--5------3--3-----------|
B------------------------------------------------|
G----2-2------2-2-------6--6------4--4-----------|
D------------------------------------------------|
G--0-------0--------0----------0-----------------|
E------------------------------------------------|

                           "Your eyes are full."
e----2--2----2--2-----5--5----3--3----2-2----2--2----|
B----------------------------------------------------|
G----2--2----2--2-----6--6----4--4----2-2----2--2----|
D----------------------------------------------------|
G--0-------0--------0-------0-------0-----0----------|
E----------------------------------------------------|

i dont feel like tabbing the rest out,
but that should get you started,
lyrics,
full of the future of us.
The air changes as you look across
at me in that wondering way

It is as if
I knew you before we spoke
Do our hearts know something we don't?
Conspiring, converging
without giving us any say

You sing me to sleep,
talk down my walls
Look through my windows as I wait
You could be the thief
I give the key to

You're ruining me
with secrets and gestures and looks
With sonnets and second-hand books
Playing the chords in me
nobody knew how to play

You sing me to sleep,
talk down my walls
Look through my windows as I wait
You could be the thief
I give the key to

It fits in your hand like the water in rain
It unlocks our two different selves
and shows we are the same
Rather than wait 'til I
put me out for the taking
You're breaking
You're breaking into my heart
and I'm letting you

Your eyes are full,
full of the future of us
Добавлено: 21.07.2012
Другие материалы по этой песне:
  • Аккорды и текст

Страница создана 21.07.2012
http://primanota.ru/brooke-fraser/the-theif-chords.htm
Привет, Гость.
Предлагаем пройти революционный курс по гитаре.
Подарок от PrimaNota.Ru, забирай!