PrimaNota.ru - самый крупный в мире бесплатный архив песенных текстов, аккордов, табулатур и нот


Bronze Radio Return - Worth Wonderin - таба, видео

Регистрация Запомнить меня
Войти через:  Facebook Google Twitter Vk Yandex Mail.ru

Bronze Radio Return - Worth Wonderin - таба, видео

Печатать
Просмотров: 91
Уроки эстрадного вокала в Санкт-Петербурге
capo on the 2nd fret. this is my first ever tab so there may be a few mistakes.

Intro:
e-------------------------------------------------------------|
B-------3-----------------------------------------------------|
G---2-------2---2---------------------------------------------|
D-----0-------0-----------------------------------------------|
A-2-------2---------------------------------------------------|
E-------------------------------------------------------------|
X4

e---------------------------------------------------------------|
B-------3--------------------3--------------------3-------------|
G---2-------2---2--------2-------2---2--------2-------2---2-----|
D-----0-------0------------0-------0------------0-------0-------|
A-2-------2------------0-------0--------------------------------|
E-------------------------------------------2-------2-----------|
   for                 long                   years
e---------------------------------------------------------------|
B-------3--------------------3--------------------3-------------|
G---2-------2---2--------2-------2---2--------2-------2---2-----|
D-----0-------0------------0-------0------------0-------0-------|
A----------------------2-------2------------0-------0-----------|
E-2-------2-----------------------------------------------------|
                   and I                    don't
e---------------------------------------------------------------|
B-------3--------------------3--------------------3-------------|
G---2-------2---2--------0-------0---0--------0-------0---0-----|
D-----0-------0------------0-------0------------0-------0-------|
A---------------------------------------------------------------|
E-2-------2------------3-------3------------3-------3-----------|
Know where ive         gone                       but i'm a-
e---------------------------------------------------------------|
B-------3--------------------2--------------------2-------------|
G---2-------2---2--------0-------0---0--------0-------0---0-----|
D-----0-------0------------2-------2------------2-------2-------|
A-2-------2------------0-------0------------0-------0-----------|
E---------------------------------------------------------------|
wake                   now                        so with-
e---------------------------------------------------------------|
B-------3--------------------3--------------------3-------------|
G---0-------0---0--------0-------0---0--------0-------0---0-----|
D-----0-------0------------0-------0------------0-------0-------|
A---------------------------------------------------------------|
E-3-------3------------3-------3------------3-------3-----------|
drawn                         like          Pennies on the


e---------------------------------------------------------------|
B-------3--------------------3--------------------3-------------|
G---2-------2---2--------2-------2---2--------2-------2---2-----|
D-----0-------0------------0-------0------------0-------0-------|
A-2-------2------------2-------2------------2-------2-----------|
E---------------------------------------------------------------|
 Beach
e---------------------------------------------------------------|
B-------3--------------------3--------------------3-------------|
G---2-------2---2--------2-------2---2--------2-------2---2-----|
D-----0-------0------------0-------0------------0-------0-------|
A-2-------2------------2-------2------------0-------0-----------|
E---------------------------------------------------------------|
                      king                  kills

e---------------------------------------------------------------|
B-------3--------------------3--------------------3-------------|
G---2-------2---2--------2-------2---2--------2-------2---2-----|
D-----0-------0------------0-------0------------0-------0-------|
A-------------------------------------------2-------2-----------|
E-2-------2------------2-------2--------------------------------|
Pawn                                         no-

e---------------------------------------------------------------|
B-------3--------------------3--------------------3-------------|
G---2-------2---2--------2-------2---2--------0-------0---0-----|
D-----0-------0------------0-------0------------0-------0-------|
A-0-------0-----------------------------------------------------|
E----------------------2-------2------------3-------3-----------|
-one                   sheds         a      tear

e---------------------------------------------------------------|
B-------3--------------------3--------------------2-------------|
G---0-------0---0--------2-------2---2--------0-------0---0-----|
D-----0-------0------------0-------0------------2-------2-------|
A----------------------2-------2------------0-------0-----------|
E-3-------3-----------------------------------------------------|
                       life                 goes
e------------------------------------------------------------------|
B-------2--------------------3--------------------3----------------|
G---0-------0---0--------0-------0---0--------0-------0---0--------|
D-----2-------2------------0-------0------------0-------0----------|
A-0-------0--------------------------------------------------------|
E----------------------3-------3------------3-------3--------------|
on           and the   world          gets  colder every

e---------------------------------------------------------------|
B-------3--------------------3--------------------3-------------|
G---2-------2---2--------2-------2---2--------2-------2---2-----|
D-----0-------0------------0-------0------------0-------0-------|
A-2-------2------------2------2-----------2-------2-------------|
E---------------------------------------------------------------|
year

e---------------------------------------------------------------|
B-------3--------------------3--------------------2-------------|
G---2-------2---2--------2-------2---2--------0-------0---0-----|
D-----0-------0------------0-------0------------2-------2-------|
A-2-------2------------2-------2------------0-------0-----------|
E---------------------------------------------------------------|
              and      you                decide

e---------------------------------------------------------------|
B-------2--------------------3--------------------3-------------|
G---0-------0---0--------2-------2---2--------0-------0---0-----|
D-----2-------2------------0-------0------------0-------0-------|
A-0-------0------------2-------2--------------------------------|
E-------------------------------------------3-------3-----------|
                      when you come or      go--
e---------------------------------------------------------------|
B-------3--------------------3--------------------3-------------|
G---2-------2---2--------2-------2---2--------2-------2---2-----|
D-----0-------0------------0-------0------------0-------0-------|
A---------------------------------------------------------------|
E-2-------2------------2-------2------------2-------2-----------|
--oohh      and you've kept me wonderin'           if you'll

e---------------------------------------------------------------|
B-------3--------------------3--------------------3-------------|
G---0-------0---0--------0-------0---0--------2-------2---2-----|
D-----0-------0------------0-------0------------0-------0-------|
A-------------------------------------------2-------2-----------|
E-3-------3------------3-------3--------------------------------|
let me know...                          and Ive

e---------------------------------------------------------------|
B-------3--------------------2--------------------3-------------|
G---0-------0---0--------0-------0---0--------2-------2---2-----|
D-----2-------2------------2-------2------------0-------0-------|
A-0-------0------------0-------0------------2-------2-----------|
E---------------------------------------------------------------|
  Waited                         in the    shadows down be-

e------------------------------------------------------------|
B-------3--------------------3--------------------3----------|
G---0-------0---0--------2-------2---2--------2-------2---2--|
D-----0-------0------------0-------0------------0-------0----|
A------------------------------------------------------------|
E-3-------3------------2-------2------------2-------2--------|
low----             ----oh-----------------------------------|       and you've kept me wonderin'

e---------------------------------------------------------------|
B-------3--------------------3--------------------3-------------|
G---2-------2---2--------0-------0---0--------0-------0---0-----|
D-----0-------0------------0-------0------------0-------0-------|
A---------------------------------------------------------------|
E-2-------2------------3-------3------------3-------3-----------|
      if its           worth   wonderin'            and you've

e---------------------------------------------------------------|
B-------3--------------------3--------------------3-------------|
G---2-------2---2--------2-------2---2--------0-------0---0-----|
D-----0-------0------------0-------0------------0-------0-------|
A---------------------------------------------------------------|
E-2-------2------------2-------2------------3-------3-----------|
 Kept me Wonderin'             if it's      worth   wonderin'

e---------------------------------------------------------------|
B-------3--------------------3--------------------3-------------|
G---0-------0---0--------2-------2---2--------2-------2---2-----|
D-----0-------0------------0-------0------------0-------0-------|
A---------------------------------------------------------------|
E-3-------3------------2-------2------------2-------2-----------|
          and you've   kept me wonderin'            if its
e---------------------------------------------------------------|
B-------3--------------------3--------------------3-------------|
G---0-------0---0--------0-------0---0--------0-------0---0-----|
D-----0-------0------------0-------0------------0-------0-------|
A---------------------------------------------------------------|
E-3-------3------------3-------3------------3-------3-----------|
 worth  wonderin'
e---------------------------------------------------------------|
B-------3--------------------3--------------------3-------------|
G---0-------0---0--------2-------2---2--------2-------2---2-----|
D-----0-------0------------0-------0------------0-------0-------|
A----------------------2-------2------------2-------2-----------|
E-3-------3-----------------------------------------------------|

e---------------------------------------------------------------|
B-------3--------------------3----------------------------------|
G---2-------2---2--------2-------2---2--------------------------|
D-----0-------0------------0-------0-----------------Repeat-----|
A-2-------2-------------2-------2-------------------------------|
E---------------------------------------------------------------|


Second half of second verse is slightly different

e---------------------------------------------------------------|
B-------3--------------------3--------------------3-------------|
G---2-------2---2--------2-------2---2--------2-------2---2-----|
D-----0-------0------------0-------0------------0-------0-------|
A-2-------2------------0-------0--------------------------------|
E-------------------------------------------2-------2-----------|
lost                   among          the   wind       get

e---------------------------------------------------------------|
B-------3--------------------3--------------------3-------------|
G---2-------2---2--------0-------0---0--------2-------2---2-----|
D-----0-------0------------0-------0------------0-------0-------|
A-------------------------------------------2-------2-----------|
E-2-------2------------3-------3--------------------------------|
trapped inside my     net         and I'll  place

e---------------------------------------------------------------|
B-------2--------------------2--------------------3-------------|
G---0-------0---0--------0-------0---0--------0-------0---0-----|
D-----2-------2------------2-------2------------0-------0-------|
A-0-------0------------0-------0--------------------------------|
E-------------------------------------------3-------3-----------|
   them                        in the      sauna in my

e----------------------------------------------------------------|
B-------3--------------------3--------------------3--------------|
G---0-------0--0--------0-------0---0-------0-------0---0--------|
D-----0-------0------------0------0-------------0-----0----------|
A----------------------------------------------------------------|
E-3-------3------------3-------3------------3-------3------------|
Head     where they'll melt togeather       there      where they'll

e------------------------------------------------------------------|
B-------3--------------------3--------------------3----------------|
G---0-------0---0--------0-------0---0--------2-------2---2--------|
D-----0-------0------------0-------0------------0-------0----------|
A-------------------------------------------2-------2--------------|
E-3-------3------------3-------3-----------------------------------|
 melt togeather       there            and You.... (rest of chorus as before)
Добавлено: 01.09.2013
Другие материалы по этой песне:
  • Аккорды и текст

Страница создана 01.09.2013
http://primanota.ru/bronze-radio-return/worth-wonderin-chords.htm
Привет, Гость.
Предлагаем пройти революционный курс по гитаре.
Подарок от PrimaNota.Ru, забирай!