PrimaNota.ru - самый крупный в мире бесплатный архив песенных текстов, аккордов, табулатур и нот


Bronx - Youth Wasted - таба, видео

Регистрация Запомнить меня
Войти через:  Facebook Google Twitter Vk Yandex Mail.ru

Bronx - Youth Wasted - таба, видео

Печатать
Просмотров: 72
-------------------------------------------------------------------------------
                             Youth Wasted - The Bronx
-------------------------------------------------------------------------------
Tabbed by: Lachie Gilmour
E-mail: lachie.gee.mour@gmail.com

Tuning: Standard

Intro

e|---------------------------------------------------------------------------|
B|---------------------------------------------------------------------------|
G|---------------------------------------------------------------------------|   (x2)
D|-x-x-x-x---3/5---5-5-5-5-5-5---3-3-3---3/5---5-5-5-5-5-5---3-3-3-3-3-3-3---|
A|-x-x-x-x---3/5---5-5-5-5-5-5---3-3-3---3/5---5-5-5-5-5-5---3-3-3-3-3-3-3---|
E|-x-x-x-x---1/3---3-3-3-3-3-3---1-1-1---1/3---3-3-3-3-3-3---1-1-1-1-1-1-1---|

Verse

e|---------------------------------------------------------------------------|
B|---------------------------------------------------------------------------|
G|--5----------5-5----------5-5----------5-5---------------------------------|
D|--5----------3-5----------3-5----------3-5---------------------------------|
A|--3------------3------------3------------3---------------------------------|
E|---------------------------------------------------------------------------|

Chorus

e|---------------------------------------------------------------------------|
B|---------------------------------------------------------------------------|
G|-------------------------------3/5--5555--3/5--5-5-------------------------|
D|-888888888888---333333333333---3/5--5555--3/5--3-5-------------------------|
A|-888888888888---333333333333---1/3--3333--1/3----3-------------------------|
E|-666666666666---111111111111-----------------------------------------------|
  
e|---------------------------------------------------------------------------|
B|---------------------------------------------------------------------------|
G|---3/5--555555555555---888888888888---333333333333-------------------------|
D|---3/5--555555555555---888888888888---333333333333-------------------------|
A|---1/3--333333333333---666666666666---111111111111-------------------------|
E|---------------------------------------------------------------------------|

e|---------------------------------------------------------------------------|
B|---------------------------------------------------------------------------|
G|---------------------------------------------------------------------------|   (x2)
D|-3/5---5-5-5-5-5-5---3-3-3---3/5---5-5-5-5-5-5---3-3-3-3-3-3-3-------------|
A|-3/5---5-5-5-5-5-5---3-3-3---3/5---5-5-5-5-5-5---3-3-3-3-3-3-3-------------|
E|-1/3---3-3-3-3-3-3---1-1-1---1/3---3-3-3-3-3-3---1-1-1-1-1-1-1-------------|

Lead Guitar (played in the chorus)

e|---------------------------------------------------------------------------|
B|--------------------6-------------------------6----------------------------|
G|---3h5--5555--3-5---5-5-------3h5--5555--3-5--5-5--------------------------|
D|---3h5--5555--3-5-----5-------3h5--5555--3-5----5--------------------------|
A|---------------------------------------------------------------------------|
E|---------------------------------------------------------------------------|

Bridge

e|---------------------------------------------------------------------------|
B|---------------------------------------------------------------------------|
G|------------------------------------5--------------------------------------| (x4)
D|---8---------------3----------------5--------------------------------------|
A|---8---------------3----------------3--------------------------------------|
E|---6---------------1-------------------------------------------------------|

Outro

e|---------------------------------------------------------------------------|
B|---------------------------------------------------------------------------|
G|----3/5--5555--3/5--5-5---3/5--5555--3/5--5-5---3/5--5555--3/5--5-5---5----|
D|----3/5--5555--3/5--3-5---3/5--5555--3/5--3-5---3/5--5555--3/5--3-5---5----|
A|----1/3--3333--1/3----3---1/3--3333--1/3----3---1/3--3333--1/3----3---3----|
E|---------------------------------------------------------------------------|


VERSE 1
The truth is, the truth still hurts
And that debt will just get worse
Repetition makes us colder
Death creeps a little bit closer

CHORUS
Sometimes the best laid plans
Still end with blood on your hands
Sometimes the best laid plans
Still end with blood on your hands

VERSE 2
Don't look back and lose your ground
Or keep passing don't slow down
The fault with the burden on each shoulder
The time has come to stop lying over

CHORUS
Sometimes the best laid plans
Still end with blood on your hands
Sometimes the best laid plans
Still end with blood on your hands

BRIDGE
The night was black, my eyes were red
Of past, present, future in my head
When did I learn to bite my tongue?
Youth is not wasted on the young

CHORUS
Sometimes the best laid plans
Still end with blood on your hands
Sometimes the best laid plans
Still end with blood on your hands

OUTRO
I gotta get this blood, off our hands
We gotta get this blood, off our hands
Добавлено: 07.09.2013
Вам также может быть интересно:
Другие материалы по этой песне:
  • Аккорды и текст

Страница создана 07.09.2013
http://primanota.ru/bronx/youth-wasted-chords.htm
Привет, Гость.
Предлагаем пройти революционный курс по гитаре.
Подарок от PrimaNota.Ru, забирай!