PrimaNota.ru - самый крупный в мире бесплатный архив песенных текстов, аккордов, табулатур и нот


Bromheads Jacket - Going Round To Have A Word - бас-таба, видео

Регистрация Запомнить меня
Войти через:  Facebook Google Twitter Vk Yandex Mail.ru

Bromheads Jacket - Going Round To Have A Word - бас-таба, видео

Печатать
Просмотров: 127
Уроки эстрадного вокала в Санкт-Петербурге
----------------------------------------------------------------------------
			     Going Round To Have A Word- Bromheads Jacket
----------------------------------------------------------------------------

Tabbed By: Nick

Tuning: Standard

Verse (Bass comes in at 0:15)
G|--------------------------------------------------------------------------|
D|---7-5-------7-5----------------------------------------------------------|
A|-------7-7-------5-7------------------------------------------------------|
E|-5---------5--------------------------------------------------------------|

Break
G|--------------------------------------------------------------------------|
D|-------------------------3-3-3-3------------------------------------------|
A|---------3-3-3-3-5-5-5-5------------------3-3-3-3-5-5-5-5-----------------|
E|-5-5-5-5--------------------------5-5-5-5-----------------3-3-3-3---------|

Chorus
G|--------------------------------------------------------------------------|
D|--------------------------------------------------------------------------|
A|-----------------3-3-3-3-3-3-3-3-5-5-5-5-5-5-5-3-3-3-3-1-1-1-1------------|
E|-5-5-5-5-5-5-5-5----------------------------------------------------------|

Verse x6
Break x2
Verse x8
Chorus x2
Break x2
Verse x8
Chorus x2
Break x4
Добавлено: 17.07.2012
Другие материалы по этой песне:
  • Аккорды и текст

Страница создана 17.07.2012
http://primanota.ru/bromheads-jacket/going-round-to-have-a-word-chords.htm
Привет, Гость.
Предлагаем пройти революционный курс по гитаре.
Подарок от PrimaNota.Ru, забирай!