PrimaNota.ru - самый крупный в мире бесплатный архив песенных текстов, аккордов, табулатур и нот


Bromheads Jacket - Clear To Some - бас-таба, видео

Регистрация Запомнить меня
Войти через:  Facebook Google Twitter Vk Yandex Mail.ru

Bromheads Jacket - Clear To Some - бас-таба, видео

Печатать
Просмотров: 131
Уроки эстрадного вокала в Санкт-Петербурге
Tabbed by Nick

This is the first song on 'On the Brain'. Pretty easy to play, and sounds best with 
distortion.

Intro
G|---------------------------------------------------------------------------|
D|---------------------------------------------------------------------------|
A|---------------------------------------------------------------------------|
E|-5-5-5-5-0-3-3-3-3-0-5-5-5-5-0-3-3-3-3-0-5~-(pause)------------------------|

G|-----------------------------------------------------------------------------|
D|-----------------------------------------------------------------------------|
A|-----------------------------------------------------------------------------|
E|-5-3-5-3-5-3-5-3-5-3-5-3-5-3-5-3-5-3/10--------------------------------------|


Main Riff (repeat til 0.35)
G|---------------------------------------------------------------------------|
D|---------------------------------------------------------------------------|
A|---------------------------------------------------------------------------|
E|-5-3-5-3-5-3-5-3-5-3-5-3---------------------------------------------------|

'Chorus 1'
G|---------------------------------------------------------------------------|
D|---------------------------------------------------------------------------|
A|---------------------------------------------------------------------------|
E|-5-5-5-5-0-3-3-3-3-0-5-5-5-5-0-(x2)----------------------------------------|

Back to Main riff until 1.17

'Chorus 2'
G|---------------------------------------------------------------------------|
D|---------------------------------------------------------------------------|
A|---------------------------------------------------------------------------|
E|5-------3-------5-------3-------5-------3-------5--------------------------|

Solo (1.34)
G|---------------------------------------------------------------------------|
D|---------------------------------------------------------------------------|
A|---------------------------------------------------------------------------|
E|-5-5-5-------5-5-------5--------5-5-5-5------------------------------------|

G|---------------------------------------------------------------------------|
D|---------------------------------------------------------------------------|
A|---------------------------------------------------------------------------|
E|-5-3-5-3-5-3-5-3-5-3-5-3-(x4)----------------------------------------------|

and then back to the main riff until the end. Listen to the song for correct timing etc. enjoy!
Добавлено: 03.03.2012
Другие материалы по этой песне:
  • Аккорды и текст

Страница создана 03.03.2012
http://primanota.ru/bromheads-jacket/clear-to-some-chords.htm
Привет, Гость.
Предлагаем пройти революционный курс по гитаре.
Подарок от PrimaNota.Ru, забирай!