PrimaNota.ru - самый крупный в мире бесплатный архив песенных текстов, аккордов, табулатур и нот


Brokencyde - Kill Me Again - таба, видео

Регистрация Запомнить меня
Войти через:  Facebook Google Twitter Vk Yandex Mail.ru

Brokencyde - Kill Me Again - таба, видео

Печатать
Просмотров: 112
-------------------------------------------------------------------------------
                             Kill me again - Brokencyde
-------------------------------------------------------------------------------
Tabbed by: Greenie

Tuning: Standard

e|---------------------------------------------------| 
B|---------------------------------------------------|
G|---------------------------------------------------|4x
D|-----12----------7-----5---------------------------|
A|-10-----8--10--8----5-----5--8~--------------------|
E|---------------------------------------------------|

e|---------------------------------------------------|
B|---------------------------------------------------|
G|-9-7-9-10-----9-7-9-10~---9-7-9-10-----9-7-9-10~---|4x
D|----------8-7----------------------8-7-------------|
A|---------------------------------------------------|
E|---------------------------------------------------|

e|-------------------------------------------------------------------------|
B|-------------------------------------------------------------------------|
G|-9-7-9-10--7-9-10-9-7-9-10~-14-12-10-9-7-9-10--7-9-10-9-7-9-10~-15-12-14~|
D|-------------------------------------------------------------------------|
A|-------------------------------------------------------------------------|
E|-------------------------------------------------------------------------|

e|------------------------------------------------------------------|
B|------------------------------------------------------------------|
G|-9-7-9-10~-7-9-10-9-7-9-10~-14-12-10-9-7-9-10~-7-9-10-9-7-9-10~---|
D|------------------------------------------------------------------|
A|------------------------------------------------------------------|
E|------------------------------------------------------------------|

e|----------------------------------------------------|
B|----------------------------------------------------|
G|-9-7-9-10-----9-7-9-10~---9-7-9-10-----9-7-9-10~----|2x
D|----------8-7----------------------8-7--------------|
A|----------------------------------------------------|
E|----------------------------------------------------|

e|--------------------------------------------------------------------------|
B|--------------------------------------------------------------------------|
G|-9-7-9-10~-7-9-10-9-7-9-10~-14-12-10-9-7-9-10~-7-9-10-9-7-9-10~-15-12-14~-|2x
D|--------------------------------------------------------------------------|
A|--------------------------------------------------------------------------|
E|--------------------------------------------------------------------------|

e|----------------------------------------------------| 
B|----------------------------------------------------|
G|----------------------------------------------------|4x
D|-----12----------7-----5----------------------------|
A|-10-----8--10--8----5-----5--8~---------------------|
E|----------------------------------------------------|

e|----------------------------------------------------|
B|----------------------------------------------------|
G|-9-7-9-10-----9-7-9-10~---9-7-9-10-----9-7-9-10~----|2x
D|----------8-7----------------------8-7--------------|
A|----------------------------------------------------|
E|----------------------------------------------------|

e|-----------------------------------------------------|
B|-----------------------------------------------------|
G|-9-7-9-10-----9-7-9-10~---9-7-9-10-----9-7-9-10~-----|4x
D|----------8-7----------------------8-7---------------|
A|-----------------------------------------------------|
E|-----------------------------------------------------|

e|---------------------------------------------------------------------------|
B|---------------------------------------------------------------------------|
G|-9-7-9-10--7-9-10-9-7-9-10~-14-12-10-9-7-9-10--7-9-10-9-7-9-10~-15-12-14~--|4x
D|---------------------------------------------------------------------------|
A|---------------------------------------------------------------------------|
E|---------------------------------------------------------------------------|

Hope you like it :)
Добавлено: 11.07.2012
Другие материалы по этой песне:
  • Аккорды и текст

Страница создана 11.07.2012
http://primanota.ru/brokencyde/kill-me-again-chords.htm
Привет, Гость.
Предлагаем пройти революционный курс по гитаре.
Подарок от PrimaNota.Ru, забирай!