PrimaNota.ru - самый крупный в мире бесплатный архив песенных текстов, аккордов, табулатур и нот


Brokencyde - 40 Oz - таба, видео

Регистрация Запомнить меня
Войти через:  Facebook Google Twitter Vk Yandex Mail.ru

Brokencyde - 40 Oz - таба, видео

Печатать
Просмотров: 237
Уроки эстрадного вокала в Санкт-Петербурге
Intro
E|--------------------------------|
B|--------------------------------|
G|--------------------------------|
D|--------------------------------|
A|3-3-5-6-3-3-5-6-3-3-5-6-8-6-5-3-|
E|--------------------------------| (2 times)
  1 & 2 & 3 & 4 & 1 & 2 & 3 & 4 &

(During the 2 measure of the repeat)

E|-----------------|
B|-1~--------------|
G|-----2~----------|
D|---------3~------|
A|-------------3~--|
E|-----------------|
   1   2   3   4
Chorus:
E|-------------------------------------13-----------|
B|-13-13-15-16-13-13-15-16-13-13-15-16----16-15-13--|
G|--------------------------------------------------|
D|--------------------------------------------------|
A|--------------------------------------------------|
E|--------------------------------------------------| (4 times)
   1  &  2  &  3  &  4  &  1  &  2  &  3  &  4  &

(During the 2 measure of the 4th repeat)

E|-----------------|
B|-1~--------------|
G|-----2~----------|
D|---------3~------|
A|-------------3~--|
E|-----------------|
   1   2   3   4

Verse 1:
E|-------------------------------------13-----------|
B|-13-13-15-16-13-13-15-16-13-13-15-16----16-15-13--|
G|--------------------------------------------------|
D|--------------------------------------------------|
A|--------------------------------------------------|
E|--------------------------------------------------| (4 times)
   1  &  2  &  3  &  4  &  1  &  2  &  3  &  4  &


Pre-Chorus:
E|-------------------------------------13-----------|
B|-13-13-15-16-13-13-15-16-13-13-15-16----16-15-13--|
G|--------------------------------------------------|
D|--------------------------------------------------|
A|--------------------------------------------------|
E|--------------------------------------------------| (4 times)
   1  &  2  &  3  &  4  &  1  &  2  &  3  &  4  &

(During the 2 measure of the 4th repeat)

E|-----------------|
B|-1~--------------|
G|-----2~----------|
D|---------3~------|
A|-------------3~--|
E|-----------------|
   1   2   3   4
Chorus:
E|-------------------------------------13-----------|
B|-13-13-15-16-13-13-15-16-13-13-15-16----16-15-13--|
G|--------------------------------------------------|
D|--------------------------------------------------|
A|--------------------------------------------------|
E|--------------------------------------------------| (4 times)
   1  &  2  &  3  &  4  &  1  &  2  &  3  &  4  &

(During the 2 measure of the 4th repeat)

E|-----------------|
B|-1~--------------|
G|-----2~----------|
D|---------3~------|
A|-------------3~--|
E|-----------------|
   1   2   3   4

Verse 2:
E|-------------------------------------13-----------|
B|-13-13-15-16-13-13-15-16-13-13-15-16----16-15-13--|
G|--------------------------------------------------|
D|--------------------------------------------------|
A|--------------------------------------------------|
E|--------------------------------------------------| (4 times)
   1  &  2  &  3  &  4  &  1  &  2  &  3  &  4  &


(During the 2 measure of the 4th repeat)

E|-----------------|
B|-1~--------------|
G|-----2~----------|
D|---------3~------|
A|-------------3~--|
E|-----------------|
   1   2   3   4

Pre-Chorus:
E|-------------------------------------13-----------|
B|-13-13-15-16-13-13-15-16-13-13-15-16----16-15-13--|
G|--------------------------------------------------|
D|--------------------------------------------------|
A|--------------------------------------------------|
E|--------------------------------------------------| (4 times)
   1  &  2  &  3  &  4  &  1  &  2  &  3  &  4  &


(During the 2 measure of the 4th repeat)

E|-----------------|
B|-1~--------------|
G|-----2~----------|
D|---------3~------|
A|-------------3~--|
E|-----------------|
   1   2   3   4

Chorus:
E|-------------------------------------13-----------|
B|-13-13-15-16-13-13-15-16-13-13-15-16----16-15-13--|
G|--------------------------------------------------|
D|--------------------------------------------------|
A|--------------------------------------------------|
E|--------------------------------------------------| (4 times)
   1  &  2  &  3  &  4  &  1  &  2  &  3  &  4  &


(During the 2 measure of the 4th repeat)

E|-----------------|
B|-1~--------------|
G|-----2~----------|
D|---------3~------|
A|-------------3~--|
E|-----------------|
   1   2   3   4

Bridge: "Meet me at the liquor store......"
E|-------------------------------------13-----------|
B|-13-13-15-16-13-13-15-16-13-13-15-16----16-15-13--|
G|--------------------------------------------------|
D|--------------------------------------------------|
A|--------------------------------------------------|
E|--------------------------------------------------| (8 times)
   1  &  2  &  3  &  4  &  1  &  2  &  3  &  4  &


Chorus:
E|-------------------------------------13-----------|
B|-13-13-15-16-13-13-15-16-13-13-15-16----16-15-13--|
G|--------------------------------------------------|
D|--------------------------------------------------|
A|--------------------------------------------------|
E|--------------------------------------------------| (4 times)
   1  &  2  &  3  &  4  &  1  &  2  &  3  &  4  &


E|-------------------------------------13-----------|
B|-13-13-15-16-13-13-15-16-13-13-15-16----16-15-13--|
G|--------------------------------------------------|
D|--------------------------------------------------|
A|--------------------------------------------------|
E|--------------------------------------------------| (4 times)
   1  &  2  &  3  &  4  &  1  &  2  &  3  &  4  &

Last Note:
E|------
B|-1~~~-
G|------|
D|------|
A|------|
E|------|
Добавлено: 23.06.2012
Другие материалы по этой песне:
  • Аккорды и текст

Страница создана 23.06.2012
http://primanota.ru/brokencyde/40-oz-chords.htm
Привет, Гость.
Предлагаем пройти революционный курс по гитаре.
Подарок от PrimaNota.Ru, забирай!