PrimaNota.ru - самый крупный в мире бесплатный архив песенных текстов, аккордов, табулатур и нот


Broken Social Scene - Shampoo Suicide - текст песни, таба, видео

Регистрация Запомнить меня
Войти через:  Facebook Google Twitter Vk Yandex Mail.ru

Broken Social Scene - Shampoo Suicide - текст песни, таба, видео

Печатать
Просмотров: 113
-----------------------------------------------------------------------------
                            Shampoo Suicide - Broken Social Scene
-----------------------------------------------------------------------------
Tabbed by: Mike V

Notes: Timing isn't perfect. I put the notes in order of when I heard them so you should 
be able to follow along pretty well. Use some kind of wah if you can.


lead guitar

e|---13h15---------------------------------------13h15p13-------------------|
B|-----------13h15------------13h15p13h15p13h15-----------------------------|
G|--------------------10h12-------------------------------------------------|
D|--------------------------------------------------------------------------|
A|--------------------------------------------------------------------------|
E|--------------------------------------------------------------------------|

e|-----------17p15/13h15/------17-13h15-----------------15h17p15-13---------|
B|--13h15---------------------------------13h15p13h15p13--------------13h15-|
G|--------------------------------------------------------------------------|
D|--------------------------------------------------------------------------|
A|--------------------------------------------------------------------------|
E|--------------------------------------------------------------------------|

              tremelo fade out // >
e|------------------------------------17-17------------13----15h17~---------|
B|----------13h15p13h15p13------------------------13h15---------------------|
G|--5h7--------------------------------------5h7----------------------------|
D|--------------------------------------------------------------------------|
A|--------------------------------------------------------------------------|
E|--------------------------------------------------------------------------|

climax first time
e|--------------------------------------------------------------------------|
B|--------------------------------------------------------------------------|
G|--14-12-14~-----10------10--12---14--12--14-12-14-12-14-12-10-------------|
D|-------------------12----------------------------------------12-----------|
A|--------------------------------------------------------------------------|
E|--------------------------------------------------------------------------|


e|--------------------------------------------------------------------------|
B|--------------------------------------------------------------------------|
G|--------------10-12--14-12--14-12-14-12-14-12-10--------------------------|
D|--10----10-12------------------------------------12-----------------------|
A|-----12-------------------------------------------------------------------|
E|--------------------------------------------------------------------------|

e|--------------------------------------------------------------------------|
B|--------------------------------------------------------------------------|
G|--------------------------------------------------------------------------|
D|--------------------------------------------------------------------------|
A|--------------------------------------------------------------------------|
E|---8/10----5------1-------8/10----5-6/----1-------------------------------|
                                  variation

bass
trick is to lightly slide the note, make it sound like a bend
G|--------------------------------------------------------------------------|
D|----8--10--(/)-12-(\)-----------------------------------------------------|
A|--8-------------------8-8-------------8-8---------------------------------|
E|-----------------------------6-6---8--------------------------------------|

G|--------------------------------------------------------------------------|
D|----8--10--(/)-12-(\)-----------------------------------------------------|
A|--8-------------------8-8---------8--------8------------------------------|
E|-----------------------------8-8------8-----------------------------------|

2nd half of the song
G|--------------------------------------------------------------------------|
D|--------------------------------------------------------------------------|
A|--5-5-5-5-5-5-5-5--8-8-8-8-8-8-8-8----------------------------------------|
E|--------------------------------------------------------------------------|



************************************

| /   slide up
| \   slide down
| h   hammer-on
| p   pull-off
| ~   vibrato
| +   harmonic
| x   Mute note
| b   Bend
| pb  Pre-bend
| br  Bend release
| pbr Pre-bend release
| brb Bend release bend

************************************
Добавлено: 05.03.2012
Другие материалы по этой песне:
  • Аккорды и текст

Страница создана 05.03.2012
http://primanota.ru/broken-social-scene/shampoo-suicide-chords.htm
Привет, Гость.
Предлагаем пройти революционный курс по гитаре.
Подарок от PrimaNota.Ru, забирай!