PrimaNota.ru - самый крупный в мире бесплатный архив песенных текстов, аккордов, табулатур и нот


Broken Social Scene - Sentimental Xs - таба, видео

Регистрация Запомнить меня
Войти через:  Facebook Google Twitter Vk Yandex Mail.ru

Broken Social Scene - Sentimental Xs - таба, видео

Печатать
Просмотров: 75
-------------------------------------------------------------------------------
                             SENTIMENTAL X'S - Broken Social Scene
-------------------------------------------------------------------------------
Tabbed by: armando ortiz
E-mail: ihugapples@gmail.com

Tuning: Standard

Riff 1:

e|---------------------------------------------------------------------------|
B|---------------------------------------------------------------------------|
G|----------------------------------------------------3---3------------------|
D|----------------------------1---1---1---1---4---4--------------------------|
A|----4---4---4---4---2---2--------------------------------------------------|
E|--2---2---2---2---2---2---2---2---2---2---2---2---2---2--------------------| and on and on and 

on and on....

Riff 2 (after riff 1 ends a repeat):

e|---------------------------------------------------------------------------|
B|---------------------------------------------------------------------------|
G|----------6----------------------------------------------------------------|
D|----8---8---8-6---------4-------------------------------------------------|
A|--9---9---------9-6-4h6---6-4h6-4h6-4-----------------------------------|
E|--------------------------------------6-4-2-----------------------------| and on and on and on 

and on...

once, Riff 2 ends sooner(by a bit) before a silence:

e|-----------------------------------------------------------------------|
B|-----------------------------------------------------------------------|
G|----------6------------------------------------------------------------|
D|----8---8---8-6---------4----------------------------------------------|
A|--9---9---------9-6-4h6---6-4h6-4--------------------------------------|
E|----------------------------------6-4-2--------------------------------|

riff 1 stays like for a while:

e|---------------------------------------------------------------------------|
B|--2------------------------------------------------------------------------|
G|----------------------------------3----------------------------------------|
D|---------------------------------------------------------------------------|
A|------4---4---4---4---4---4---4-------4---4---4---4---4---4---4------------|
E|----2---2---2---2---2---2---2---2---2---2---2---2---2---2---2--------------|

and when riff 2 begins again it goes like this:

e|---------------------------------------------------------------------------|
B|---------------------------------------------------------------------------|
G|----------6----------------------------------------------------------------|
D|----8---8---8-6---------4--------------------------------------------------|
A|--9---9---------9-6-4h6---6-4h6-4------------------------------------------|
E|----------------------------------6-4h6-4-2--------------------------------|

and continues:

e|---------------------------------------------------------------------------|
B|---------------------------------------------------------------------------|
G|----------6----------------------------------------------------------------|
D|----8---8---8-6---------4--------------------------------------------------|
A|--9---9---------9-6-4h6---6-4h6-4h6-4--------------------------------------|
E|--------------------------------------6-4-2--------------------------------| and on and on and 

on and on...

Little synthed riff:

e|---------------------------------------------------------------------------|
B|---------------------------------------------------------------------------|
G|---------------------------------------------------------------------------|
D|----8--6--4-----------4-----4--6--4----------------------------------------|
A|-------------6--4--6-----6-----------4-------------------------------------|
E|---------------------------------------------------------------------------|

************************************

| /   slide up
| \   slide down
| h   hammer-on
| p   pull-off
| ~   vibrato
| +   harmonic
| x   Mute note
| b   Bend
| pb  Pre-bend
| br  Bend release
| pbr Pre-bend release
| brb Bend release bend

************************************
Добавлено: 08.08.2015
Другие материалы по этой песне:
  • Аккорды и текст

Страница создана 08.08.2015
http://primanota.ru/broken-social-scene/sentimental-xs-chords.htm
Привет, Гость.
Предлагаем пройти революционный курс по гитаре.
Подарок от PrimaNota.Ru, забирай!