PrimaNota.ru - самый крупный в мире бесплатный архив песенных текстов, аккордов, табулатур и нот


Broken Social Scene - Never Felt Alive - таба, видео

Регистрация Запомнить меня
Войти через:  Facebook Google Twitter Vk Yandex Mail.ru

Broken Social Scene - Never Felt Alive - таба, видео

Печатать
Просмотров: 125
Tabbed by: Dylan Wagner
Email:Soccer_player101@hotmail.com
Band Name: Broken Social Scene
Album Name: Lo-Fi For The Dividing Nights (EP)
Song Name: Never Felt Alive

A song from their newest EP I thought I would tab.

http://www.youtube.com/watch?v=hzNtnG2hM2Q :Link to where I reference the timing.

Tuning:EADGBe (Personally I like to play it tuned to EADGBD, it's your choice.)

Picking instrument: I like to use my thumb when I play this but it's played with a 
pick on the album, lol. :P

Starts at 0:08
Little harmonic at the start
e|--12+------------------------------------------------------------------|
B|--12+------------------------------------------------------------------|
G|-----------------------------------------------------------------------|
D|-----------------------------------------------------------------------|
A|-----------------------------------------------------------------------|
E|-----------------------------------------------------------------------|

Starts at 0:12
Chords: Cmaj7,   G6,  Gmaj13 or Gmaj9 or Gmaj9(No 3rd) 
e|--------0-------0------0-----------------------------------------------|
B|--------0-------0------0----(It depends on how many strings you hit----|
G|--------0-------0------0----which changes the Gmaj chord)--------------|
D|--------2-------0------0-----------------------------------------------|
A|--------3-------2------0-----------------------------------------------|
E|--------x-------3------2-----------------------------------------------|

Then at 0:40 it changes up
Chords: G6 then slides to another variation of G6, Cmaj7
e|-------0--------------------------------------0----0-------------------|
B|-------0--------------------------------------0----0-------------------|
G|-------0--------------------------------------0----0-------------------|
D|-------0--------------------------------------0----2-------------------|
A|-------5--------------------------------------2----3-------------------|
E|-------7--------------------------------------3----x-------------------|

At 1:08 it changes back to the first set of chords
Chords: Cmaj7,   G6,  Gmaj13 or Gmaj9 or Gmaj9(No 3rd) 
e|--------0-------0------0------------------------------------------------|
B|--------0-------0------0-----(It depends on how many strings you hit----|
G|--------0-------0------0-----which changes the chord)-------------------|
D|--------2-------0------0------------------------------------------------|
A|--------3-------2------0------------------------------------------------|
E|--------x-------3------2------------------------------------------------|

End on Gmaj13 or Gmaj9 or Gmaj9(No 3rd)
e|--------0---------------------------------------------------------------|
B|--------0----(It depends on how many strings you hit--------------------|
G|--------0----which changes the chord)-----------------------------------|
D|--------0---------------------------------------------------------------|
A|--------0---------------------------------------------------------------|
E|--------2---------------------------------------------------------------|

Short song, simple, genious.

It would be nice to see some comments, suggestions, corrections and ratings!

************************************

| /   slide up
| \   slide down
| h   hammer-on
| p   pull-off
| ~   vibrato
| +   harmonic
| x   Mute note
| b   Bend
| pb  Pre-bend
| br  Bend release
| pbr Pre-bend release
| brb Bend release bend

************************************
Добавлено: 10.07.2012
Другие материалы по этой песне:
  • Аккорды и текст

Страница создана 10.07.2012
http://primanota.ru/broken-social-scene/never-felt-alive-chords.htm
Привет, Гость.
Предлагаем пройти революционный курс по гитаре.
Подарок от PrimaNota.Ru, забирай!