PrimaNota.ru - самый крупный в мире бесплатный архив песенных текстов, аккордов, табулатур и нот


Broken Social Scene - Love And Mathematics - бас-таба, видео

Регистрация Запомнить меня
Войти через:  Facebook Google Twitter Vk Yandex Mail.ru

Broken Social Scene - Love And Mathematics - бас-таба, видео

Печатать
Просмотров: 125
===============================================================================

Band: Broken Social Scene
Song: Love and Mathematics
Album: Feel Good Lost
Tabbed By: Charlie Lewis
e-mail: sci-fi-lullaby@hotmail.co.uk

Tuning: Standard

XxXxXxXxXxXxX This one's for Anna!! XxXxXxXxXxXxX

The notes with stars after them you don't have to play if you don't want, but I'm sure
it is how it is played in the song.

Let all the notes ring like in the song

         (Start)
            V
  3   4     1   2   3   4    1   2   3   4    1   2   3   4    1   2   3   4   
G|--------||----------------|----------------|----------------|----------------|
D|------0-||4---------------|-----------0----|----------------|----------------|
A|--------||5*--------------|--------4-----2-|----------------|-----------2--0-|
E|3--3----||----------------|--------5*----3*|----------------|--------3-------|

            1   2   3   4    1   2   3   4    1   2   3   4    1   2   3   4   
          G|----------------|----------------|----------------|----------------||
          D|4---------------|--------2-----0-|----------------|----------------||
          A|5*--------------|--------0*------|----------------|--------------0-||
          E|----------------|--------------3*|----------------|----------------||

	Repeat the above 8 bars until the drumming changes

         (Drumming changes here)   
            V
  3   4     1   2   3   4    1   2   3   4    1   2   3   4    1   2   3   4   
G|--------||----------------|----------------|----------------|----------------|
D|--------||0---------------|----------------|0---------------|--------2-----5-|
A|4--0--4-||----------------|--------4--0--4-|2*--------------|-----------0----|
E|--------||----------------|----------------|----------------|----------------|

            1   2   3   4    1   2   3   4    1   2   3   4    1   2   3   4   
          G|----------------|----------------|----------------|----------------|
          D|4---------------|----------------|0---------------|----------------|
          A|5*--------------|--------4--0--4-|2*--------------|--------------0-|
          E|----------------|----------------|----------------|----------------|

            1   2   3   4    1   2   3   4    1   2   3   4    1   2   3   4   
          G|----------------|----------------|----------------|----------------|
          D|4---------------|-----------0----|----------------|--------2-----5-|
          A|5*--------------|--------4-----2-|----------------|-----------0----|
          E|----------------|--------5*----3*|----------------|----------------|

            1   2   3   4    1   2   3   4    1   2   3   4    1   2   3   4   
          G|----------------|----------------|----------------|----------------||
          D|4---------------|--------2-----0-|----------------|----------------||
          A|5*--------------|--------0*------|----------------|--------4--0--4-||
          E|----------------|--------------3*|----------------|----------------||

	Just repeat these 16 vaguely, I know this isn't the exact song but it's a
	starting point, the bass is pretty much improvised around the above notes
	For the whole song after the intro bit.

	Enjoy! Please rate!


===============================================================================
Добавлено: 21.02.2012
Другие материалы по этой песне:
  • Аккорды и текст

Страница создана 21.02.2012
http://primanota.ru/broken-social-scene/love-and-mathematics-chords.htm
Привет, Гость.
Предлагаем пройти революционный курс по гитаре.
Подарок от PrimaNota.Ru, забирай!