PrimaNota.ru - самый крупный в мире бесплатный архив песенных текстов, аккордов, табулатур и нот


Broken Social Scene - I Slept With Bonhomme At The Cbc - таба, видео

Регистрация Запомнить меня
Войти через:  Facebook Google Twitter Vk Yandex Mail.ru

Broken Social Scene - I Slept With Bonhomme At The Cbc - таба, видео

Печатать
Просмотров: 131
-------------------------------------------------------------------------------
	I SLEPT WITH BONHOMME AT THE CBC - Broken Social Scene
-------------------------------------------------------------------------------
Tabbed by: Ben Aitken
Email: ben.j.aitken@gmail.com

Tuning: G1 standard, keyboard arr. for guitar
	G2 standard, keyboard arr. for guitar
        G3 capo on 1st fret
-|----------------------------------------------------------------------------|
-|----------------------------------------------------------------------------|
-|----------------------------------------------------------------------------|
-|----------------------------------------------------------------------------|
-|--3--------5----------------5--------3--------------------------------------|
-|----------------------------------------------------------------------------|
  G1 repeat for a while

-|--11----------------11----11--------------------11------------11-----11-----|
-|----------------------------------------------------------------------------|
-|----------------------------------------------------------------------------|
-|----------------------------------------------------------------------------|
-|----------------------------------------------------------------------------|
-|----------------------------------------------------------------------------|
  G2 repeat for a while


-|-------------------------------------------------------------------------------------|
-|----------1p0------------------------------0------------1p0--------------------------|
-|-------0-------0----------------------0--------------0-------0-----------------------|
-|--0h2-------------2--0--------------------------0h2-------------2--0-----------------|
-|-------------------------------------------------------------------------------------|
-|-------------------------------------------------------------------------------------|
  G3 0:59

-|----------------------------------------------------------------------------------------|
-|--3-----------------1p0---------------1--0-----------------1p0-----------------3--3-----|
-|-------0---------0-------0---------0--------0-----------0-------0-----------------------|
-|------------0h2-------------0----------------------0h2-------------2--0-----------------|
-|----------------------------------------------------------------------------------------|
-|----------------------------------------------------------------------------------------|

-|-----------------------------------------------------------------------------------------------------|
-|----------1p0-----------------------1p0---------------------1p0---------------------1p0--------------|
-|-------0-------0-----------------0-------0---------------0-------0---------------0-------0-----------|
-|--0h2-------------0----0----0h2-------------2--0----0h2-------------2--0----0h2-------------2--0-----|
-|-----------------------------------------------------------------------------------------------------|
-|-----------------------------------------------------------------------------------------------------|

-|-----------------------------------------3-------------------------------------------------------|
-|--3----1---------------------------------3-------------------------------------------------------|
-|------------2--0--------------------0----0----0--0------------------4--4--4--4\2--2--0-----------|
-|------------------2--0----0----0h2------------------2--0--------------------------------2--0-----|
-|-------------------------------------------------------------------------------------------------|
-|-------------------------------------------------------------------------------------------------|
  1:44

-|---------------------------------------------------------------------------------------------|
-|----------1p0--------------------0--1--0---------------------1p0--------------3--1-----------|
-|-------0-------0--------------------------0---------------0-------0-----------------2--0-----|
-|--0h2-------------0--------------------------0-------0h2-------------0-----------------------|
-|---------------------------------------------------------------------------------------------|
-|---------------------------------------------------------------------------------------------|
  2:02

-|---------------------------------------------------------------------------------------------|
-|----------1p0---------------------------------0--1p0-----0-----------------------------------|
-|-------0-------0------------------------------0-------0--0-----------------------------------|
-|--0h2-------------0----------------------0h2-------------------------------------------------|
-|--------------------------------------------------------------0------------------------------|
-|---------------------------3/5--3--------------------------------3---------------------------|

-|------------------------------2-------2--------2-------------2----------------|
-|-----------------------------------------3--------3---------------------------|
-|---------------------------2-------2--------2----------2--0-------------------|
-|--4---4-----------------------------------------------------------------------|
-|------------------------------------------------------------------------------|
-|------------------------------------------------------------------------------|
  2:51

-|----------------------------------------2-------2-------2--------2--------2------------------|
-|-----------------------------------------------------------3--------3--------3---------------|
-|-------------------------------------2-------2-------2--------2--------2--------2------------|
-|--4----4----4----4---------------------------------------------------------------------------|
-|---------------------------------------------------------------------------------------------|
-|---------------------------------------------------------------------------------------------|
  3:05

| /  slide up
| \  slide down
| h  hammer-on
| p  pull-off
| ~  vibrato
| +  harmonic
| x  Mute note
===============================================================================
Добавлено: 24.04.2012
Другие материалы по этой песне:
  • Аккорды и текст

Страница создана 24.04.2012
http://primanota.ru/broken-social-scene/i-slept-with-bonhomme-at-the-cbc-chords.htm
Привет, Гость.
Предлагаем пройти революционный курс по гитаре.
Подарок от PrimaNota.Ru, забирай!