PrimaNota.ru - самый крупный в мире бесплатный архив песенных текстов, аккордов, табулатур и нот


Broken Social Scene - Guilty Cubicles - таба, видео

Регистрация Запомнить меня
Войти через:  Facebook Google Twitter Vk Yandex Mail.ru

Broken Social Scene - Guilty Cubicles - таба, видео

Печатать
Просмотров: 126
-------------------------------------------------------------------------------
                             GUILTY CUBICLES - Broken Social Scene
-------------------------------------------------------------------------------
Tabbed by: A.J. Conner
Email: ajconner123@gmail.com



Tuning: If you have a tuner that you can re-calibrate the HZ,
   calibrate it to 430 HZ (just a little bit flat from standard).
   If your tuner doesn't do this, just listen and you'll notice
   the guitars are all tuned a little flat. It's worth tuning 
   to them. I guess it's a quarter-step down?

This song is an instrumental; a swirling arrangement of many guitars
playing a fantastic melody, and I tabbed out all the parts I could hear.
   
The times that each guitar enters are noted.
I also noted the times the one guitar plays each of it's segments, 
because there are random pauses after each time it plays. 
   
Enjoy :) I like to use a decent amount of reverb and subtle delay.

  Guitar One - Main Riff, played for duration of the song.
e|---------------------------------------------------------------------------|
B|----2-2---2-2---2-2---2-2---2-2---2-2---2-2---2-2--------------------------|
G|----4-4---4-4---4-4---4-4---4-4---4-4---4-4---4-4--------------------------|
D|----4-4---4-4---4-4---4-4---4-4---4-4---4-4---4-4--------------------------|
A|--------0-----4-----4-----2-----2------------------------------------------|
E|--4-----------------------------------0-----0------------------------------|

  Guitar Two - Plays throughout. Starts the song with Guitar One.
e|--------16----------------16----------------16-----------------------------|
B|-----14----14----------14----14----------14--------------------------------|
G|--16----------16----16----------16----16-----------------------------------|
D|---------------------------------------------------------------------------|
A|---------------------------------------------------------------------------|
E|---------------------------------------------------------------------------|

  Guitar Three - Enters at the start with guitars 1 and 2, gets louder gradually 
  until it's loudest at 0:34. Also plays throughout most of song.
e|------4------------4------------4------------------------------------------|
B|----2---2--------2---2--------2--------------------------------------------|
G|--4-------4----4-------4----4----------------------------------------------|
D|---------------------------------------------------------------------------|
A|---------------------------------------------------------------------------|
E|---------------------------------------------------------------------------|

  Guitar Four - 0:36. Plays the entire time after it enters.
e|---------------------------------------------------------------------------|
B|---------------------------------------------------------------------------|
G|---------------------------------------------------------------------------|
D|--13---------------------------13------------------------------------------|
A|-----16-14----------14------------16-14----------14-14---------------------|
E|-----------16-14-16---16-16-------------16-14-16---------------------------|

  Guitar Five - After the initial melodies are established, this guitar
  adds some neat improv. riffs. Remember, all the other guitars are just
  playing their parts behind this. It's all very subtle, yet sounds incredible.
  1:09                      1:23                     1:30
e|--------------------------|-----------------------|----0---0---------------|
B|-------0-0-------------0--|-------0-0-------------|------7-----------------|
G|--6-6---------------------|--6-6------------------|--6-------6-------------|
D|-----------6-6----4-6-----|--------------6-6--4-4-|------------------------|
A|--------------------------|-----------------------|------------------------|
E|--------------------------|-----------------------|------------------------|

  1:37          1:42                   1:50         |--play again at 1:58--|
e|----0---0----|-----------------0----|----------------0---0-----------------|
B|------0------|-------------0-7------|------------------7-------------------|
G|--6-------6--|-------------------6--|--6-6--4-4----6-------6---------------|
D|-------------|--6-6---4-6-----------|--------------------------------------|
A|-------------|----------------------|--------------------------------------|
E|-------------|----------------------|--------------------------------------|

  At 2:00, Guitar Three changes it up to:
  Then Guitar One rests shortly, while this riff is played.
  From then on, Guitar Three just alternates between it's two parts.      
                
e|------2-4--------2-4--------2-4--------------------------------------------|
B|--2----------2----------2--------------------------------------------------|
G|----4----------4----------4------------------------------------------------|
D|---------------------------------------------------------------------------|
A|---------------------------------------------------------------------------|
E|---------------------------------------------------------------------------|

  When Guitar One rejoins, more improv. follows from Guitar Five:
  2:13                   2:20                  2:26 and again at 2:31
e|----------------------|---------------------|------------------------------|
B|-------0-0-------0-0--|--9-9--9-9--7-7------|-------0-0--------------------|
G|--6-6-----------------|----------------8-8--|------------6-6---------------|
D|-------------6-6------|---------------------|--6-6-------------------------|
A|----------------------|---------------------|------------------------------|
E|----------------------|---------------------|------------------------------|

  2:37         2:41              2:48              2:53         2:58
e|------------|-----------------|-----------------|------------|-------------|
B|--7-7-------|-----------------|-------0-0-------|--7-7-------|-------------|
G|-------8-8--|-------6-6-------|------------6-6--|-------8-8--|-----6-6-----|
D|------------|--4-4-------6-6--|--4-4------------|------------|-4-4------6-6|
A|------------|-----------------|-----------------|------------|-------------|
E|------------|-----------------|-----------------|------------|-------------|

That's it! I tried to get every riff played that I could hear and every
last guitar I heard as well, comment or email me if you see any errors,
or anything I may have missed. 



| /  slide up
| \  slide down
| h  hammer-on
| p  pull-off
| ~  vibrato
| +  harmonic
| x  Mute note
===============================================================================
Добавлено: 03.06.2012
Другие материалы по этой песне:
  • Аккорды и текст

Страница создана 03.06.2012
http://primanota.ru/broken-social-scene/guilty-cubicles-chords.htm
Привет, Гость.
Предлагаем пройти революционный курс по гитаре.
Подарок от PrimaNota.Ru, забирай!