PrimaNota.ru - самый крупный в мире бесплатный архив песенных текстов, аккордов, табулатур и нот


Broken Fences - For A Long Time Coming - таба, видео

Регистрация Запомнить меня
Войти через:  Facebook Google Twitter Vk Yandex Mail.ru

Broken Fences - For A Long Time Coming - таба, видео

Печатать
Просмотров: 40
-------------------------------------------------------------------------------
                             FOR A LONG TIME COMING - Broken Fences
-------------------------------------------------------------------------------
Tabbed by:Bjørge Sæter
E-mail:bj0erge@icloud.com

Ok. first i tab how the different parts are played. then comes the lyrics with the chords..

Tuning:standard
Capo: none

Intro/Verse:          
                D
e|-2---2----------2---2----------|
B|---3------3-------3-------3----|
G|--2-----2--------2------2------|
D|-0--0-0---------0--0-0---------|
A|-------------------------------|
E|-------------------------------|

                 Am
e|-----0--------------0----------|
B|-1--------------1--------------|
G|---2------2-------2------0-----|
D|--2-----2--------2-----2-------|
A|-0--0-0---------0--0-0---------|
E|-------------------------------|

                 C
e|-----0--------------0----------|
B|-1--------------1--------------|
G|---0------0-------0------0-----|
D|--2-----2--------2-----2-------|
A|-3--3-3---------3--3-3---------|
E|-------------------------------|

        G          Em
e|-----3-------------0-----------|
B|-0-------------0---------------|
G|---0------0------0-------0-----|
D|--0-----0-------2------2-------|
A|-------------------------------|
E|-3--3-3--------0--0--0---------|


Chorus:
       F             C
e|-----1-------------0-----------|
B|-1-------------1---------------|
G|---2------2------0-------0-----|
D|--3-----3-------2------2-------|
A|---------------3--3-3----------|
E|-1--1-1------------------------|

       F             C
e|-----1-------------0-----------|
B|-1-------------1---------------|
G|---2------2------0-------0-----|
D|--3-----3-------2------2-------|
A|---------------3--3-3----------|
E|-1--1-1------------------------|

       F             C
e|-----1-------------0-----------|
B|-1-------------1---------------|
G|---2------2------0-------0-----|
D|--3-----3-------2------2-------|
A|---------------3--3-3----------|
E|-1--1-1------------------------|

       G             G
e|-----3-------------3-----------|
B|-0-------------0---------------|
G|---0------0------0-------0-----|
D|--0-----0-------0------0-------|
A|-------------------------------|
E|-3--3-3--------3--3--3---------|

Bridge:






The verse have the same picking pattern as the intro, except the last open third string
on the end of the Am. this is most often played on 2nd fret.

Intro: D Am C G Em


(Verse)
D                        Am   
     If you're looking frustrated 
             C
     with a smile 
                       G        Em
     just wait around here for awhile 
D                  Am
     Streets of frustration 
                 C
     I can't get away 
              G              Em
     Oh no, I don't want to stay 

(Chorus)
                F          C
     And for a long time coming, 
                   F          C
     I can't come back here humming 
                 F         C         G
     my tunes of a life changed all around 
                F            C
     Oh, from a long time of running 
                   F            C
     I can't come back here humming
                 F     C              G 
     my tunes of why I can't handle it yet 

(Verse)
D                         Am
     If you're looking for comfort 
                    C
     It's only in dreams 
                   G         Em
     I don't know what that means 
D                            Am
     And if what you are is cold 
                         C
     and you're feeling old 
                      G                  Em
     Well baby this place can't help you here 

(Chorus)
                F          C
     Oh, for a long time coming, 
                   F          C
     I can't come back here humming 
                 F         C         G
     my tunes of a life changed all around 
                F            C
     Oh, from a long time of running 
                   F            C
     I can't come back here humming
                 F     C              G 
     my tunes of why I can't handle it yet 

(Bridge)
   
     Oh
F             C        G      
     Can you help me follow this? 
F             C       Am
     Can you help me discover this? 
F             C        G           F (Hold the F x2)
     Can you help me follow this through? 

(Verse)
D                  Am
     Oh, and now I know 
                  C
     just where to go 
                            G                     Em
     Cause someone keeps calling and calming me down


(Chorus)
                F          C
     Oh, for a long time coming, 
                   F          C
     I can't come back here humming 
                 F         C         G
     my tunes of a life changed all around 
                F            C
     Oh, from a long time of running 
                   F            C
     I can't come back here humming
                 F     C              G 
     my tunes of why I can't handle it yet 

Outro:
            F        C
     Oh... 
            F        C
     OoOh
            F        C
     OoOh
            G
     Ooooo(oooooo)
Добавлено: 23.05.2016
Другие материалы по этой песне:
  • Аккорды и текст

Страница создана 23.05.2016
http://primanota.ru/broken-fences/for-a-long-time-coming-chords.htm
Привет, Гость.
Предлагаем пройти революционный курс по гитаре.
Подарок от PrimaNota.Ru, забирай!