PrimaNota.ru - самый крупный в мире бесплатный архив песенных текстов, аккордов, табулатур и нот


Broken Bones - Annihilation No 3 - таба, видео

Регистрация Запомнить меня
Войти через:  Facebook Google Twitter Vk Yandex Mail.ru

Broken Bones - Annihilation No 3 - таба, видео

Печатать
Просмотров: 46
Artist: Broken Bones
Song: Decapitated

Guitar 1
e|-----------------------------------------------------------------------------|
B|-5-5-5-5-5-5-5-5-9--9--9--9--9--9--9--9--7-7-7-7-7-7-7-7--10----10----10-----|
G|-7-7-7-7-7-7-7-7-10-10-10-10-10-10-10-10-9-9-9-9-9-9-9-9--12b15r12b15r12b15--|
D|-0-0-0-0-0-0-0-0-0--0--0--0--0--0--0--0--0-0-0-0-0-0-0-0---------------------|
A|-----------------------------------------------------------------------------|
E|-----------------------------------------------------------------------------|
   PM----------------------------------------------------|

e|-------------------------------------------------------------------12----12-----|
B|-5-5-5-5-5-5-5-5-9--9--9--9--9--9--9--9--7-7-7-7-7-7-7-7--14-14-12-15b1r715b17--|
G|-7-7-7-7-7-7-7-7-10-10-10-10-10-10-10-10-9-9-9-9-9-9-9-9------------------------|
D|-0-0-0-0-0-0-0-0-0--0--0--0--0--0--0--0--0-0-0-0-0-0-0-0------------------------|
A|--------------------------------------------------------------------------------|
E|--------------------------------------------------------------------------------|
   PM----------------------------------------------------|

Guitar 1+2
e|-----------------------------------------------------------------------------|
B|-5-5-5-5-5-5-5-5-9--9--9--9--9--9--9--9--7-7-7-7-7-7-7-7--10----10----10-----|
G|-7-7-7-7-7-7-7-7-10-10-10-10-10-10-10-10-9-9-9-9-9-9-9-9--12b15r12b15r12b15--|
D|-0-0-0-0-0-0-0-0-0--0--0--0--0--0--0--0--0-0-0-0-0-0-0-0---------------------|
A|-----------------------------------------------------------------------------|
E|-----------------------------------------------------------------------------|
   PM----------------------------------------------------|

e|----------------------------------------------------------|
B|-5-5-5-5-5-5-5-5-9--9--9--9--9--9--9--9--7-7-7-7-7-7-7-7--|
G|-7-7-7-7-7-7-7-7-10-10-10-10-10-10-10-10-9-9-9-9-9-9-9-9--|
D|-0-0-0-0-0-0-0-0-0--0--0--0--0--0--0--0--0-0-0-0-0-0-0-0--|
A|----------------------------------------------------------|
E|----------------------------------------------------------|
   PM----------------------------------------------------|

e|----------------------------------------------------------------------------------------------------------|
B|-7p6p5h7p6p5h7p6p5h7p6p5h8p7p6h8p7p6h8p7p6h8p7p6h9p8p7h9p8p7h9p8p7h9p8p7h10p9p8h10p9p8h10p9p8h10p9p8------|
G|----------------------------------------------------------------------------------------------------------|
D|------------------------------------------------------------------------------------------------------2b--|
A|------------------------------------------------------------------------------------------------------2b--|
E|------------------------------------------------------------------------------------------------------0---|
                                                                                                       /2\


Guitar 1                                                                        2x
e|---------------------------------------------------------------------------------|
B|---------------------------------------------------------------------------------|
G|---------------------------------------------------------------------------------|
D|--9--9-9--9-9--9--9-9--9-9--5--5-5--5-5--5--5-5--5-5-----------------------------|
A|--7--7-7--7-7--7--7-7--7-7--3--3-3--3-3--3--3-3--3-3--5--5-5--5-5--5--5-5--5-5---|
E|------------------------------------------------------3--3-3--3-3--3--3-3--3-3---|


Guitar 1                                                                        2x
e|---------------------------------------------------------------------------------|
B|---------------------------------------------------------------------------------|
G|---------------------------------------------------------------------------------|
D|--9--9-9--9-9--9--9-9--9-9--5--5-5--5-5--5--5-5--5-5-----------------------------|
A|--7--7-7--7-7--7--7-7--7-7--3--3-3--3-3--3--3-3--3-3--5--5-5--5-5--5--5-5--5-5---|
E|------------------------------------------------------3--3-3--3-3--3--3-3--3-3---|
 |                                                                                 |
 |                                                                                 |
 |                                                                                 |
Guitar 2                                                                           |
e|---------------------------------------------------------------------------------|
B|---------------------------------------------------------------------------------|
G|---------------------------------------------------------------------------------|
D|-s9-------------------------5----------------------------------------------------|
A|-s7-------------------------3-------------------------5--------------------------|
E|------------------------------------------------------3--------------------------|


Solo1
Guitar 1
e|---------------------------------------------------------------12-----|
B|------------------------12h14-14p12h14-14p12h14-14p12h14-14p12-14b17--|
G|--------------12h14b16------------------------------------------------|
D|----------12----------------------------------------------------------|
A|----------------------------------------------------------------------|
E|--15bvib--------------------------------------------------------------|


Solo-Backing
Guitar 2                                                                        2x
e|---------------------------------------------------------------------------------|
B|--------------------9h10p9-------------------------------------------------------|
G|--9--9-9--9-9--9--9-9--9-9--5--5-5--5-5--5--5-5--5-5-----------------------------|
D|--9--9-9--9-9--9--9-9--9-9--5--5-5--5-5--5--5-5--5-5--5--5-5--5-5--5--5-5--5-5---|
A|--7--7-7--7-7--7--7-7--7-7--3--3-3--3-3--3--3-3--3-3--5--5-5--5-5--5--5-5--5-5---|
E|------------------------------------------------------3--3-3--3-3--3--3-3--3-3---|


Verse 1
Guitar 1+2                                                                      4x
e|---------------------------------------------------------------------------------|
B|--------------------9h10p9-------------------------------------------------------|
G|--9--9-9--9-9--9--9-9--9-9--5--5-5--5-5--5--5-5--5-5-----------------------------|
D|--9--9-9--9-9--9--9-9--9-9--5--5-5--5-5--5--5-5--5-5--5--5-5--5-5--5--5-5--5-5---|
A|--7--7-7--7-7--7--7-7--7-7--3--3-3--3-3--3--3-3--3-3--5--5-5--5-5--5--5-5--5-5---|
E|------------------------------------------------------3--3-3--3-3--3--3-3--3-3---|


Chorus
Guitar 1+2      4x
e|-----------------|
B|-----------------|
G|-----------------|
D|--2----2---------|
A|--0----0---------|
E|----3----3--0h3--|
      PM   PM---|

Verse 2
Guitar 1+2                                                                      6x
e|---------------------------------------------------------------------------------|
B|--------------------9h10p9-------------------------------------------------------|
G|--9--9-9--9-9--9--9-9--9-9--5--5-5--5-5--5--5-5--5-5-----------------------------|
D|--9--9-9--9-9--9--9-9--9-9--5--5-5--5-5--5--5-5--5-5--5--5-5--5-5--5--5-5--5-5---|
A|--7--7-7--7-7--7--7-7--7-7--3--3-3--3-3--3--3-3--3-3--5--5-5--5-5--5--5-5--5-5---|
E|------------------------------------------------------3--3-3--3-3--3--3-3--3-3---|


Chorus
Guitar 1+2      4x
e|-----------------|
B|-----------------|
G|-----------------|
D|--2----2---------|
A|--0----0---------|
E|----3----3--0h3--|
      PM   PM---|

Solo 2
Guitar 1
e|--------------------------------------------------------------------------12h14p12--------|
B|-------------------------------------------------15b18-15b18-15b18-15b18-----------14p12--|
G|--12h14b16-r14b16-r14b16r14b16-1414-14p13p12h14-------------------------------------------|
D|------------------------------------------------------------------------------------------|
A|------------------------------------------------------------------------------------------|
E|------------------------------------------------------------------------------------------|

e|--12h14p12h14p12h14p12h14p12h14p12h14p12h14b16--|
B|------------------------------------------------|
G|------------------------------------------------|
D|------------------------------------------------|
A|------------------------------------------------|
E|------------------------------------------------|


Solo-Backing
Guitar 2                                                                        4x
e|---------------------------------------------------------------------------------|
B|--------------------9h10p9-------------------------------------------------------|
G|--9--9-9--9-9--9--9-9--9-9--5--5-5--5-5--5--5-5--5-5-----------------------------|
D|--9--9-9--9-9--9--9-9--9-9--5--5-5--5-5--5--5-5--5-5--5--5-5--5-5--5--5-5--5-5---|
A|--7--7-7--7-7--7--7-7--7-7--3--3-3--3-3--3--3-3--3-3--5--5-5--5-5--5--5-5--5-5---|
E|------------------------------------------------------3--3-3--3-3--3--3-3--3-3---|



Chorus
Guitar 1+2      4x
e|-----------------|
B|-----------------|
G|-----------------|
D|--2----2---------|
A|--0----0---------|
E|----3----3--0h3--|
      PM   PM---|

Verse 3
Guitar 1+2                                                                      6x
e|---------------------------------------------------------------------------------|
B|--------------------9h10p9-------------------------------------------------------|
G|--9--9-9--9-9--9--9-9--9-9--5--5-5--5-5--5--5-5--5-5-----------------------------|
D|--9--9-9--9-9--9--9-9--9-9--5--5-5--5-5--5--5-5--5-5--5--5-5--5-5--5--5-5--5-5---|
A|--7--7-7--7-7--7--7-7--7-7--3--3-3--3-3--3--3-3--3-3--5--5-5--5-5--5--5-5--5-5---|
E|------------------------------------------------------3--3-3--3-3--3--3-3--3-3---|


Chorus
Guitar 1+2      4x
e|-----------------|
B|-----------------|
G|-----------------|
D|--2----2---------|
A|--0----0---------|
E|----3----3--0h3--|
      PM   PM---|

Solo 3
Guitar 1
e|------------------------------------------------------------------------------------------------|
B|-------5--------------------5-------------------5-------------------5---------------------------|
G|---------------19------------------19------------------19---------------h2p0h2p0h2p0h2p0h2b3----|
D|------------------------------------------------------------------------------------------------|
A|--12----- ------------12------------------12------------------12--------------------------------|
E|------------------------------------------------------------------------------------------------|
    a.h.a.h.     a.h.   a.h.  a.h.   a.h.   a.h.  a.h.   a.h.   a.h.  a.h.  

Solo-Backing
Guitar 2                                                                        4x
e|---------------------------------------------------------------------------------|
B|--------------------9h10p9-------------------------------------------------------|
G|--9--9-9--9-9--9--9-9--9-9--5--5-5--5-5--5--5-5--5-5-----------------------------|
D|--9--9-9--9-9--9--9-9--9-9--5--5-5--5-5--5--5-5--5-5--5--5-5--5-5--5--5-5--5-5---|
A|--7--7-7--7-7--7--7-7--7-7--3--3-3--3-3--3--3-3--3-3--5--5-5--5-5--5--5-5--5-5---|
E|------------------------------------------------------3--3-3--3-3--3--3-3--3-3---|


Chorus
Guitar 1+2      4x
e|-----------------|
B|-----------------|
G|-----------------|
D|--2----2---------|
A|--0----0---------|
E|----3----3--0h3--|

End
e|---------------------|
B|---------------------|
G|---------------------|
D|--9brb------------9--|
A|--7brb------------7--|
E|---------------------|
Добавлено: 01.01.2016
Вам также может быть интересно:
Другие материалы по этой песне:
  • Аккорды и текст

Страница создана 01.01.2016
http://primanota.ru/broken-bones/annihilation-no-3-chords.htm
Привет, Гость.
Предлагаем пройти революционный курс по гитаре.
Подарок от PrimaNota.Ru, забирай!