PrimaNota.ru - самый крупный в мире бесплатный архив песенных текстов, аккордов, табулатур и нот


Broken Bells - And I Love Her - таба, видео

Регистрация Запомнить меня
Войти через:  Facebook Google Twitter Vk Yandex Mail.ru

Broken Bells - And I Love Her - таба, видео

Печатать
Просмотров: 156
-------------------------------------------------------------------------------
                             Broken Bells - And I love Her
-------------------------------------------------------------------------------
Tabbed by: Zach
    This is Broken Bells cover of And I Love Her by the Beatles. This song is great for seduction ;)
It uses different chords than the original. The chords are taken from several live performances of the 
song, however, there is one chord I was unable to get (indicated below (You'll know it when you see it)).
If anyone could figure out this chord I would greatly appreciate it and will add it to the 
tab later. Have fun!

Tuning: Standard (No Capo)

(Intro)
    Em            Bm            Em
e|--0--0--00000---2--2--22222---0--0--00000----------------------------------|
B|--0--0--00000---3--3--33333---0--0--00000----------------------------------|
G|--0--0--00000---4--4--44444---0--0--00000----------------------------------|
D|--2--2--22222---4--4--44444---2--2--22222----------------------------------|
A|--2--2--22222---2--2--22222---2--2--22222----------------------------------|
E|--0--0--00000---2--2--22222---0--0--00000----------------------------------|
(Verse I)
    Em                  Bm
    I give her all my   love 
e|--0--0--00000---------2--2--22222------------------------------------------|
B|--0--0--00000---------3--3--33333------------------------------------------|
G|--0--0--00000---------4--4--44444------------------------------------------|
D|--2--2--22222---------4--4--44444------------------------------------------|
A|--2--2--22222---------2--2--22222------------------------------------------|
E|--0--0--00000---------2--2--22222------------------------------------------|
    Em                  Bm
    That's all I        do
e|--0--0--00000---------2--2--22222------------------------------------------|
B|--0--0--00000---------3--3--33333------------------------------------------|
G|--0--0--00000---------4--4--44444------------------------------------------|
D|--2--2--22222---------4--4--44444------------------------------------------|
A|--2--2--22222---------2--2--22222------------------------------------------|
E|--0--0--00000---------2--2--22222------------------------------------------|
    Em                  Bm
    And if you saw my   love
e|--0--0--00000---------2--2--22222------------------------------------------|
B|--0--0--00000---------3--3--33333------------------------------------------|
G|--0--0--00000---------4--4--44444------------------------------------------|
D|--2--2--22222---------4--4--44444------------------------------------------|
A|--2--2--22222---------2--2--22222------------------------------------------|
E|--0--0--00000---------2--2--22222------------------------------------------|
    G               A
    You'd love her  too
e|--3--333----------000--000000----------------------------------------------|
B|--0--000----------222--222222----------------------------------------------|
G|--0--000----------222--222222----------------------------------------------|
D|--0--000----------222--222222----------------------------------------------|
A|--2--222----------000--000000----------------------------------------------|
E|--3--333----------000--000000----------------------------------------------|
          D  
    And I love her
e|--------2--2--2--222222--22--2--2------------------------------------------|
B|--------3--3--3--333333--33--3--3------------------------------------------|
G|--------2--2--2--222222--22--2--2------------------------------------------|
D|--------0--0--0--000000--00--0--0------------------------------------------|
A|---------------------------------------------------------------------------|
E|---------------------------------------------------------------------------|
 
----------------------  
(Verse II)
    Em                  Bm
    She gives me       everything
e|--0--0--00000---------2--2--22222------------------------------------------|
B|--0--0--00000---------3--3--33333------------------------------------------|
G|--0--0--00000---------4--4--44444------------------------------------------|
D|--2--2--22222---------4--4--44444------------------------------------------|
A|--2--2--22222---------2--2--22222------------------------------------------|
E|--0--0--00000---------2--2--22222------------------------------------------|
    Em                  Bm
    And tender          ly
e|--0--0--00000---------2--2--22222------------------------------------------|
B|--0--0--00000---------3--3--33333------------------------------------------|
G|--0--0--00000---------4--4--44444------------------------------------------|
D|--2--2--22222---------4--4--44444------------------------------------------|
A|--2--2--22222---------2--2--22222------------------------------------------|
E|--0--0--00000---------2--2--22222------------------------------------------|
    Em                  Bm   
    The kiss my lover   brings
e|--0--0--00000---------2--2--22222------------------------------------------|
B|--0--0--00000---------3--3--33333------------------------------------------|
G|--0--0--00000---------4--4--44444------------------------------------------|
D|--2--2--22222---------4--4--44444------------------------------------------|
A|--2--2--22222---------2--2--22222------------------------------------------|
E|--0--0--00000---------2--2--22222------------------------------------------|
    G               A 
    She brings to   me
e|--3--333----------000--000000----------------------------------------------|
B|--0--000----------222--222222----------------------------------------------|
G|--0--000----------222--222222----------------------------------------------|
D|--0--000----------222--222222----------------------------------------------|
A|--2--222----------000--000000----------------------------------------------|
E|--3--333----------000--000000----------------------------------------------|
          D 
    And I love her
e|--------2--2--2--222222--22--2--2------------------------------------------|
B|--------3--3--3--333333--33--3--3------------------------------------------|
G|--------2--2--2--222222--22--2--2------------------------------------------|
D|--------0--0--0--000000--00--0--0------------------------------------------|
A|---------------------------------------------------------------------------|
E|---------------------------------------------------------------------------|

----------------------
(Bridge)
    Bm           A
    A love like ours
e|--2--2--22222--0--0--00000-------------------------------------------------|
B|--3--3--33333--2--2--22222-------------------------------------------------|
G|--4--4--44444--2--2--22222-------------------------------------------------|
D|--4--4--44444--2--2--22222-------------------------------------------------|
A|--2--2--22222--0--0--00000-------------------------------------------------|
E|--2--2--22222--0--0--00000-------------------------------------------------|
    Bm           F#m
    Would never die
e|--2--2--22222--2--2--22222-------------------------------------------------|
B|--3--3--33333--2--2--22222-------------------------------------------------|
G|--4--4--44444--2--2--22222-------------------------------------------------|
D|--4--4--44444--4--4--44444-------------------------------------------------|
A|--2--2--22222--4--4--44444-------------------------------------------------|
E|--2--2--22222--2--2--22222-------------------------------------------------|
    Bm           F#m
    As long as I have
e|--2--2--22222--2--2--22222-------------------------------------------------|
B|--3--3--33333--2--2--22222-------------------------------------------------|
G|--4--4--44444--2--2--22222-------------------------------------------------|
D|--4--4--44444--4--4--44444-------------------------------------------------|
A|--2--2--22222--4--4--44444-------------------------------------------------|
E|--2--2--22222--2--2--22222-------------------------------------------------|
        A
    You near me
e|------00000--0--0--00000---------------------------------------------------|
B|------22222--2--2--22222---------------------------------------------------|
G|------22222--2--2--22222---------------------------------------------------|
D|------22222--2--2--22222---------------------------------------------------|
A|------00000--0--0--00000---------------------------------------------------|
E|------00000--0--0--00000---------------------------------------------------|

----------------------
(Verse III) 
    Em                  Bm
    Bright are the      stars
e|--0--0--00000---------2--2--22222------------------------------------------|
B|--0--0--00000---------3--3--33333------------------------------------------|
G|--0--0--00000---------4--4--44444------------------------------------------|
D|--2--2--22222---------4--4--44444------------------------------------------|
A|--2--2--22222---------2--2--22222------------------------------------------|
E|--0--0--00000---------2--2--22222------------------------------------------|
    Em                  Bm
    Dark is the         sky
e|--0--0--00000---------2--2--22222------------------------------------------|
B|--0--0--00000---------3--3--33333------------------------------------------|
G|--0--0--00000---------4--4--44444------------------------------------------|
D|--2--2--22222---------4--4--44444------------------------------------------|
A|--2--2--22222---------2--2--22222------------------------------------------|
E|--0--0--00000---------2--2--22222------------------------------------------|
    Em                  Bm
    I know this love of mine
e|--0--0--00000---------2--2--22222------------------------------------------|
B|--0--0--00000---------3--3--33333------------------------------------------|
G|--0--0--00000---------4--4--44444------------------------------------------|
D|--2--2--22222---------4--4--44444------------------------------------------|
A|--2--2--22222---------2--2--22222------------------------------------------|
E|--0--0--00000---------2--2--22222------------------------------------------|
    G               A
    Will never      die
e|--3--333----------000--000000----------------------------------------------|
B|--0--000----------222--222222----------------------------------------------|
G|--0--000----------222--222222----------------------------------------------|
D|--0--000----------222--222222----------------------------------------------|
A|--2--222----------000--000000----------------------------------------------|
E|--3--333----------000--000000----------------------------------------------|
          D
    And I love her
e|--------2--2--2--222222--22--2--2------------------------------------------|
B|--------3--3--3--333333--33--3--3------------------------------------------|
G|--------2--2--2--222222--22--2--2------------------------------------------|
D|--------0--0--0--000000--00--0--0------------------------------------------|
A|---------------------------------------------------------------------------|
E|---------------------------------------------------------------------------|

----------------------
(Keyboard Solo)
    Fm           Cm
e|--1--1--11111--3--3--33333-------------------------------------------------|
B|--1--1--11111--4--4--44444-------------------------------------------------|
G|--1--1--11111--5--5--55555-------------------------------------------------|
D|--3--3--33333--5--5--55555-------------------------------------------------|
A|--3--3--33333--3--3--33333-------------------------------------------------|
E|--1--1--11111--3--3--33333-------------------------------------------------|

    Fm           Cm
e|--1--1--11111--3--3--33333-------------------------------------------------|
B|--1--1--11111--4--4--44444-------------------------------------------------|
G|--1--1--11111--5--5--55555-------------------------------------------------|
D|--3--3--33333--5--5--55555-------------------------------------------------|
A|--3--3--33333--3--3--33333-------------------------------------------------|
E|--1--1--11111--3--3--33333-------------------------------------------------|

    Fm           Cm
e|--1--1--11111--3--3--33333-------------------------------------------------|
B|--1--1--11111--4--4--44444-------------------------------------------------|
G|--1--1--11111--5--5--55555-------------------------------------------------|
D|--3--3--33333--5--5--55555-------------------------------------------------|
A|--3--3--33333--3--3--33333-------------------------------------------------|
E|--1--1--11111--3--3--33333-------------------------------------------------|

   Ab            Bb            Eb            Eb
e|-4--4--44444---6--6--66666---6--6--66666---6--6--66666---------------------|
B|-4--4--44444---6--6--66666---8--8--88888---8--8--88888---------------------|
G|-5--5--55555---7--7--77777---8--8--88888---8--8--88888---------------------|
D|-6--6--66666---8--8--88888---8--8--88888---8--8--88888---------------------|
A|-6--6--66666---8--8--88888---6--6--66666---6--6--66666---------------------|
E|-4--4--44444---6--6--66666---0--0--00000---0--0--00000---------------------|

----------------------
(Verse IV)
    
    Bright are the     stars
    Fm           Cm
e|--1--1--11111--3--3--33333-------------------------------------------------|
B|--1--1--11111--4--4--44444-------------------------------------------------|
G|--1--1--11111--5--5--55555-------------------------------------------------|
D|--3--3--33333--5--5--55555-------------------------------------------------|
A|--3--3--33333--3--3--33333-------------------------------------------------|
E|--1--1--11111--3--3--33333-------------------------------------------------|
    
    Dark is the        sky
    Fm           Cm
e|--1--1--11111--3--3--33333-------------------------------------------------|
B|--1--1--11111--4--4--44444-------------------------------------------------|
G|--1--1--11111--5--5--55555-------------------------------------------------|
D|--3--3--33333--5--5--55555-------------------------------------------------|
A|--3--3--33333--3--3--33333-------------------------------------------------|
E|--1--1--11111--3--3--33333-------------------------------------------------|
    
    I know this love of mine
    Fm           Cm
e|--1--1--11111--3--3--33333-------------------------------------------------|
B|--1--1--11111--4--4--44444-------------------------------------------------|
G|--1--1--11111--5--5--55555-------------------------------------------------|
D|--3--3--33333--5--5--55555-------------------------------------------------|
A|--3--3--33333--3--3--33333-------------------------------------------------|
E|--1--1--11111--3--3--33333-------------------------------------------------|
    
    Will never die         And I love her
   Ab            Bb            Eb            Eb
e|-4--4--44444---6--6--66666---6--6--66666---6--6--66666---------------------|
B|-4--4--44444---6--6--66666---8--8--88888---8--8--88888---------------------|
G|-5--5--55555---7--7--77777---8--8--88888---8--8--88888---------------------|
D|-6--6--66666---8--8--88888---8--8--88888---8--8--88888---------------------|
A|-6--6--66666---8--8--88888---6--6--66666---6--6--66666---------------------|
E|-4--4--44444---6--6--66666---0--0--00000---0--0--00000---------------------|
    
----------------------
(Outro)
    Fm                          Cm
e|--1--1--111-111--1--111--11---3--3--333--333--3--333--33-------------------|
B|--1--1--111-111--1--111--11---4--4--444--444--4--444--44-------------------|
G|--1--1--111-111--1--111--11---5--5--555--555--5--555--55-------------------|
D|--3--3--333-333--3--333--33---5--5--555--555--5--555--55-------------------|
A|--3--3--333-333--3--333--33---3--3--333--333--3--333--33-------------------|
E|--1--1--111-111--1--111--33---3--3--333--333--3--333--33-------------------|

    Fm                          Cm
e|--1--1--111-111--1--111--11---3------------------------------------------------|
B|--1--1--111-111--1--111--11---4------------------------------------------------|
G|--1--1--111-111--1--111--11---5------------------------------------------------|
D|--3--3--333-333--3--333--33---5------------------------------------------------|
A|--3--3--333-333--3--333--33---3------------------------------------------------|
E|--1--1--111-111--1--111--11---3------------------------------------------------|

************************************

| /   slide up
| \   slide down
| h   hammer-on
| p   pull-off
| ~   vibrato
| +   harmonic
| x   Mute note
| b   Bend
| pb  Pre-bend
| br  Bend release
| pbr Pre-bend release
| brb Bend release bend

************************************
Добавлено: 09.06.2015
Другие материалы по этой песне:
  • Аккорды и текст

Страница создана 09.06.2015
http://primanota.ru/broken-bells/and-i-love-her-chords.htm
Привет, Гость.
Предлагаем пройти революционный курс по гитаре.
Подарок от PrimaNota.Ru, забирай!