PrimaNota.ru - самый крупный в мире бесплатный архив песенных текстов, аккордов, табулатур и нот


Broilers - Ruby Light Dark - бас-таба, видео

Регистрация Запомнить меня
Войти через:  Facebook Google Twitter Vk Yandex Mail.ru

Broilers - Ruby Light Dark - бас-таба, видео

Печатать
Просмотров: 171
Artist:     Broilers
Title:      Rub, Light & Dark
Tabbed by:  Daniel Welzbacher


Intro guitar only. Start with vocals:

G|---------------------------------|
D|---------------------------------|
A|----------3~~~~------------------|		4x
E|5~~~~1~~~~-----3~~~~-------------|



	Chorus
G|-----------------5-5-5-5--------|
D|-7-7-7-7-3-3-3-3---------5-5-5-5|
A|----------------3-3-3-3---------|		6x
E|5-5-5-5-1-1-1-1---------3-3-3-3-| 

	Strophe
G|-----------------------------|
D|-----------------------------|
A|---------------3-3-3-3-------|		2x
E|5-5-5-5-1-1-1-1-------3-3-3-3|

	Strophe1.2
G|-----------------------------|
D|-----------------------------|
A|---------------3-3-3-5-------|		2x
E|5-5-5-3-1-1-1-1-------3-3-3-3|

					Chorus	4x

	Interlude
G|---------------|
D|2~~~~----------|
A|-----5~~~~3~~~~|				2x
E|---------------|

					Strophe	4x

				Interlude	6x

					Refrain till the end (fade out)
Добавлено: 09.03.2012
Другие материалы по этой песне:

Страница создана 09.03.2012
http://primanota.ru/broilers/ruby-light-dark-chords.htm
Привет, Гость.
Предлагаем пройти революционный курс по гитаре.
Подарок от PrimaNota.Ru, забирай!