PrimaNota.ru - самый крупный в мире бесплатный архив песенных текстов, аккордов, табулатур и нот


Broder Daniel - Shoreline Live - аккорды и текст, видео

Регистрация Запомнить меня
Войти через:  Facebook Google Twitter Vk Yandex Mail.ru

Broder Daniel - Shoreline Live - аккорды и текст, видео

Печатать
Просмотров: 41
Уроки эстрадного вокала в Санкт-Петербурге
Shoreline Live
Broder Daniel
Detta är studioversionen. Observera att i live-versionen från Sen Kväll Med 
Luuk spelade de den ett halv tonsteg lägre.

[Intro]

    Gm
e|--3----|
B|---3---|
G|----3--|
D|----5--|
A|----5--|
E|----3--|

Gm A# F D# A# F


[slinga 1]

e|------------------------------------------|
B|-------------------8-10-11-11-10-8-6-6----|
G|--7-7-7-3--7-8-7-5----------------------7-|
D|------------------------------------------|
A|------------------------------------------|
E|------------------------------------------|

e|------------------------------------------|
B|------------------------------------------|
G|--7-7-7-3--7-8-7-5------------------------|
D|-------------------5-7-8-8-7-5------------|
A|-------------------------------8-8-5------|
E|------------------------------------------|


[Verse]

Gm A# F
ever since I was eight or nine
D# A# F
I've been standing on the shoreline
Gm A# F
all my life I've been waiting
D# A# F
for something lasting
Gm A# F
you lose your hunger, and you lose your way (Weight?)
D# A# F
you get confused, and then you fade away

D# A# F
oh this town
A# F Gm
kills you when you are young
D# A# F
oh this town
A# F Gm*
kills you when you are young

Gm A# F D# A# F 2x + slinga 1

(this town, this town)
(this town, this town)

Gm A# F
I'm not the boy that I used to be
D# A# F
this town has got the youth of me
Gm A# F
all the eyes turn ho-ll-ow
D# A# F
from the work of so-rr-ow


[Key change]
C D# F


[Chorus]

A# Gm
you die young
F
you die when you're young
C D# F
you die when you're young

A# Gm
we are shadows
F
oh shadows
C
shadows in the alley
D# F
(this town, this town)


Gm A# F D# A# F

slinga 2 x2:

e|----------------------------------------------------------------------------------|
B|----------------------------------------------------------------------------------|
G|--7-7-7-7-7-7-7-7--9-9-9-9--10-10-10-10--|--7-7-7-7-7-7-7-7--5-5-5-5--2-2-2-2-----|
D|----------------------------------------------------------------------------------|
A|----------------------------------------------------------------------------------|
E|----------------------------------------------------------------------------------|

Gm A# F
standing on the pavement
D# A# F
by the office building
Gm A# F
there's so much to do
D# A# F
never time for y-o-u

A# Gm
you die young
F
you die when you're young
C D# F
you die when you're young

A# Gm
we are shadows
F
oh shadows
C
shadows in the alley
D# F
(this town, this town)

A# Gm
I've got nothing
F
nothing to wait for
H
nothing to wait for

(this town, this town, this town.)

A# Gm
this town
F
kills the young
C D# F
kills you when you're young

Gm    3.5.5.3.3.3
Gm*   X.10.12.12.11.10
A#    6.8.8.7.6.6
F     X.8.10.10.10.8
D#    X.6.8.8.8.6
C     X3.5.5.5.3
Добавлено: 21.10.2017
Другие материалы по этой песне:
  • Аккорды и текст

Страница создана 21.10.2017
http://primanota.ru/broder-daniel/shoreline-live-chords.htm
Привет, Гость.
Предлагаем пройти революционный курс по гитаре.
Подарок от PrimaNota.Ru, забирай!