PrimaNota.ru - самый крупный в мире бесплатный архив песенных текстов, аккордов, табулатур и нот


Broder Daniel - Dream My Days Away - аккорды и текст, видео

Регистрация Запомнить меня
Войти через:  Facebook Google Twitter Vk Yandex Mail.ru

Broder Daniel - Dream My Days Away - аккорды и текст, видео

Печатать
Просмотров: 23
Уроки эстрадного вокала в Санкт-Петербурге
Dream My Days Away
Broder Daniel
[Slinga]

e|-9-9-9-----------------9-9-9-----9-10--9-7----7-7-7-------------------|
B|-------10--9-10-9-7----------10---------------------10--9--9--10--7---|
G|----------------------------------------------------------------------|
D|----------------------------------------------------------------------|
A|----------------------------------------------------------------------|
E|----------------------------------------------------------------------|
|--------F#m---------||----------A----------||----------E--------------|  (ackord)

[Solo] (1/2)

e|-----------------------------------------------------------------------------------------|
B|-----------------------------------------------------------------------------------------|
G|--6----4----2----4--6--7--7--6--6--4----4----2--1----1--2----------4--6--7--7--6/7\6--4--|
D|-----------------------------------------------------------4----4------------------------|
A|-----------------------------------------------------------------------------------------|
E|-----------------------------------------------------------------------------------------|
 |--------F#m----------|-------Bm------|----E--|-----C#----|-----F#m-----|------Bm--------|


[Solo] (2/2)

e|--------------10--9--7--9-----------------------------------------------------------|
B|--4/10----10------------------------------------------------------------------------|
G|---------------------------9----11----9-9----11/9/7/6----6--7--6--4--6--4-----------|
D|------------------------------------------------------------------------------------|
A|------------------------------------------------------------------------------------|
E|------------------------------------------------------------------------------------|
|-----E------|-----C#-----|------A------|-----E-----|---------F#m------|-----E-------|


[Intro]

        F#m
        slinga x 2 (vid första gången slår man bara an varje ackord 1 gång)


[Verse]

        F#m  Bm
        I, I dream my days away
        E          C#    F#m
        I dream my days away
           Bm
        oh I just let them pass
        E          C#    F#m
        I dream my days away

slinga: slinga


[Verse]

        F#m             Bm
        oh don't try to understand me
              E      C#          F#m
        don't try to understsand me
           Bm
        oh I make believe
        E          C#   A
        I dream my days away


[Chorus]

                         E
        I dream my days away
           F#m                    E        A
        oh I don't listen to what people say
                          E
        I let the days go by
              F#m               E             F#m
        while I'm still young I dream my days away


slinga: slinga x 2 (som introt)


[Solo]

[Ending]

        Bm*         F#m            E          F#m
            yeah          yeah
        A                       E
                I dream my days away
           F#m            E         F#m
        oh I just let the days go byy

        slinga (varje ackord slås an en gång)


[Outro]

      orgeln spelar ungefär: F#m A E F#m A .... fade away....


************************************

| /  Slide up
| \  Slide down

************************************

--------------------------------
                                |
       akus.     rock           |
                                |
Bm*  - 799777   14.16.16.x.x.x  |
F#m  - 244222   x.9.11.11.x.x   |
A    - x02220   x.12.14.14.x.x  |
E    - 022100   x.7.9.9.x.x     |
Bm   - x24432   7.9.9.x.x.x     |
C#   - x46664   9.11.11.x.x.x   |
                                |
--------------------------------


rock - rockackord. funkar bäst på elgitarr
akus. - vanliga barré-ackord funkar bäst på akustisk gitarr
Добавлено: 21.10.2017
Другие материалы по этой песне:
  • Аккорды и текст

Страница создана 21.10.2017
http://primanota.ru/broder-daniel/dream-my-days-away-chords.htm
Привет, Гость.
Предлагаем пройти революционный курс по гитаре.
Подарок от PrimaNota.Ru, забирай!