PrimaNota.ru - самый крупный в мире бесплатный архив песенных текстов, аккордов, табулатур и нот


Brocas Helm - Cry Of The Banshee - таба, бас-таба, видео

Регистрация Запомнить меня
Войти через:  Facebook Google Twitter Vk Yandex Mail.ru

Brocas Helm - Cry Of The Banshee - таба, бас-таба, видео

Печатать
Просмотров: 466
Song: Cry of The Banshee
Artist: Brocas Helm
Album: Defender of The Crown

Transcribed by Colton Wood
Email: ColtonWoed@aol.com

I tabbed this cause I like this song. As simple as that. And I like tapping 
and this song is basically 80% tapping so I decided I would give it a try. 
And since there really isn't any Verse/Chorus separation, I just separated 
the parts in Intro part A, Intro part B, Intro part C, Verse 1, Interlude, 
Verse 2, Bridge, [Solo part A, Solo part B, Solo part C, Solo part D], 
Verse 3, Outro. Once again, good luck guys. Oh and this tab is 100% accurate 
guaranteed.

[The solo is complicated so I separated it for your convenience]

Oh and I don't think I did good on the lyrics, so don't count it against me.

BIG UPDATE! (1/8/11)
- Feeling like a total idiot about a year after I tabbed this, I realized 
there is no guitar 2... So I re-did this whole tab to remove the second 
guitar. Sorry it took me so long TO REALIZE guys.
- Added the missing part of the solo at about 2:20, the tab is now 100% 
complete.

Legend:
T | Tap note
h | Hammer on to
p | Pull off to
/ | Slide up to
\ | Slide down to
. | Palm mute
~ | Held note
b | Bend to
r | Release bend


Tuning: Dropped D - DADGBe

****************************************************************************
Intro Part A:
- No Guitar

Intro Part B:

E|-------------------------------------|
B|-/8-10-8-11-8-10-8-11-8-10-8-11-8-11-|
G|-------------------------------------|
D|-------------------------------------|
A|-------------------------------------|
D|-------------------------------------|
      T    T    T    T    T    T    T

E|-------------------------------------|
B|-/6-10-6-11-6-10-6-11-6-13-6-11-6-10-|
G|-------------------------------------|
D|-------------------------------------|
A|-------------------------------------|
D|-------------------------------------|
      T    T    T    T    T    T    T

E|-------------------------------------|
B|-/4-13-4-11-4-10-4-11-4-10-4-11-4-10-|
G|-------------------------------------|
D|-------------------------------------|
A|-------------------------------------|
D|-------------------------------------|
      T    T    T    T    T    T    T 

E|-------------------------------------|
B|-/8-10-8-11-8-10-8-11-8-13-8-15------|
G|-------------------------------------|
D|-------------------------------------|
A|-------------------------------------|
D|-------------------------------------|
      T    T    T    T    T    T   

E|---------------------------|
B|-8-15--8-15--8-15--8-15~---|
G|---------------------------|
D|---------------------------|
A|---------------------------|
D|---------------------------|
     T     T     T     T

Intro part C: X2

e|-----------------------------------------|
B|-8-15-8-13-8-11-8-13-8-15-8-13-8-11-8-15-|
G|-----------------------------------------|
D|-----------------------------------------|
A|-----------------------------------------|
D|-----------------------------------------|
     T    T    T    T    T    T    T    T

e|--------------------------|
B|-6-13-6-11-6-10-6-11-6-13~|
G|--------------------------|
D|--------------------------|
A|--------------------------|
D|--------------------------|
     T    T    T    T   T

e|-----------------------------------------|
B|-8-15-8-13-8-11-8-13-8-15-8-13-8-11-8-15-|
G|-----------------------------------------|
D|-----------------------------------------|
A|-----------------------------------------|
D|-----------------------------------------|
     T    T    T    T    T    T    T    T

e|--------------------------|
B|-6-10-6-8-6-7-6-8-6-10~---|
G|--------------------------|
D|--------------------------|
A|--------------------------|
D|--------------------------|
     T    T   T   T   T

e|--------------------------------------------------|
B|-4-11-4-10-4-8-4-10-4-11-4-10-4-8-4-11-4-10~--3~--|
G|--------------------------------------------------|
D|--------------------------------------------------|
A|--------------------------------------------------|
D|--------------------------------------------------|
     T    T    T   T    T    T    T   T    T    

e|----------------------------------------------|
B|-4-11-4-10-4-8-4-10-4-11-4-10-4-8-4-11-4-10~--|
G|----------------------------------------------|
D|----------------------------------------------|
A|----------------------------------------------|
D|----------------------------------------------|
     T    T    T   T    T    T    T   T    T    

Verse 1:
I will write the power chords to the lyrics to give you an accurate placing 
of where these

Here is a key for you:

   G5      F5     D#5       D5
e|-----------------------------------|
B|-----------------------------------|
G|-----------------8--------7--------|
D|--5-------3------8-or-1---7-or-0---|
A|--5-------3------6----1---5----0---|
D|--5-------3-----------1--------0---|

 G5                 F5
Lovers of the dark, step into the light 
   G5                              F5
We know your brave, youve come to see us dream
D#5          D5           D#5        D5
Many times before, now we open up a door
      G5                         F5
To a world so flaming bright, a world youve never seen
         G5               F5
Can you hear the Banshee scream
        D#5               D5
Can you hear the Banshee scream
        D#5               D5
Can you hear the Banshee scream


Interlude:

E|-------------------------------------|
B|-/8-10-8-11-8-10-8-11-8-10-8-11-8-11-|
G|-------------------------------------|
D|-------------------------------------|
A|-------------------------------------|
D|-------------------------------------|
      T    T    T    T    T    T    T

E|-------------------------------------|
B|-/6-10-6-11-6-10-6-11-6-13-6-11-6-10-|
G|-------------------------------------|
D|-------------------------------------|
A|-------------------------------------|
D|-------------------------------------|
      T    T    T    T    T    T    T

E|-------------------------------------|
B|-/4-13-4-11-4-10-4-11-4-10-4-11-4-10-|
G|-------------------------------------|
D|-------------------------------------|
A|-------------------------------------|
D|-------------------------------------|
      T    T    T    T    T    T    T 

E|-------------------------------------|
B|-/8-10-8-11-8-10-8-11-8-13-8-15------|
G|-------------------------------------|
D|-------------------------------------|
A|-------------------------------------|
D|-------------------------------------|
      T    T    T    T    T    T   

E|-------------------------------------|
B|-/8-10-8-11-8-10-8-11-8-10-8-11-8-11-|
G|-------------------------------------|
D|-------------------------------------|
A|-------------------------------------|
D|-------------------------------------|
      T    T    T    T    T    T    T

E|-------------------------------------|
B|-/6-10-6-11-6-10-6-11-6-13-6-11-6-10-|
G|-------------------------------------|
D|-------------------------------------|
A|-------------------------------------|
D|-------------------------------------|
      T    T    T    T    T    T    T

E|-------------------------------------|
B|-/4-13-4-11-4-10-4-11-4-10-4-11-4-10-|
G|-------------------------------------|
D|-------------------------------------|
A|-------------------------------------|
D|-------------------------------------|
      T    T    T    T    T    T    T 

E|-------------------------------------|
B|-/8-10-8-11-8-10-8-11-8-13-8-15------|
G|-------------------------------------|
D|-------------------------------------|
A|-------------------------------------|
D|-------------------------------------|
      T    T    T    T    T    T   

E|---------------------------|
B|-8-15--8-15--8-15--8-15~---|
G|---------------------------|
D|---------------------------|
A|---------------------------|
D|---------------------------|
     T     T     T     T

Verse 2:
Same format as the first Verse.

     G5
You know that silence
     F5
Is not our middle name
            G5         F5
Can you recognize the game
D#5            D5
Step into the gate and
D#5                D5
Grasp the hand of fate
        G5               F5
Its a time machine, a devils dream
    G5               F5
And yet its in your grasp
  D#5          D5
Legends of the past
         D#5              D5
Can you hear the Banshee scream
  G5
Banshee howling in the city
 F5
Means a knight has died
           G5              F5
For what reason, for what glory
     D#5            D5
Who knows for what pride
 D#5            D5        
Country king or criminal
G5                 F5      
War or vengeance, what the Hell?
G5               F5
Death is all the same
      D#5               D5
If he died in shame or Honor
D#5              D5
Who on Earth can tell?

Bridge/Interlude:

e|-----------------------------------------|
B|-----------------------------------------|
G|-----------------------------------------|
D|-5-12-5-10-5-8-5-10-5-12-5-10-5-8-5-12---|
A|-----------------------------------------|
D|-----------------------------------------|
     T    T    T   T    T    T    T   T

e|--------------------------|
B|--------------------------|
G|--------------------------|
D|-3-10-3-8-3-7-3-8-3-10~---|
A|--------------------------|
D|--------------------------|
     T    T   T   T   T   

e|-----------------------------------------|
B|-----------------------------------------|
G|-----------------------------------------|
D|-5-12-5-10-5-8-5-10-5-12-5-10-5-8-5-12---|
A|-----------------------------------------|
D|-----------------------------------------|
     T    T    T   T    T    T    T   T

e|--------------------------|
B|--------------------------|
G|--------------------------|
D|-3-10-3-8-3-7-3-8-3-10~---|
A|--------------------------|
D|--------------------------|
     T    T   T   T   T   

e|--------------------------------------------------|
B|--------------------------------------------------|
G|--------------------------------------------------|
D|-1-8-1-7-1-5-1-7-1-8-1-7-1-5-1-8-1-7~--0~---------|
A|--------------------------------------------------|
D|--------------------------------------------------|
     T   T   T   T   T   T   T   T   T

e|----------------------------------------------|
B|----------------------------------------------|
G|----------------------------------------------|
D|-1-8-1-7-1-5-1-7-1-8-1-7-1-5-1-8-1-7~---------|
A|----------------------------------------------|
D|----------------------------------------------|
     T   T   T   T   T   T   T   T   T

Solo Part A:

e|-----------------------------------------|
B|-8-15-8-13-8-11-8-13-8-15-8-13-8-11-8-15-|
G|-----------------------------------------|
D|-----------------------------------------|
A|-----------------------------------------|
D|-----------------------------------------|
     T    T    T    T    T    T    T    T

e|-----------------------------------------|
B|-6-13-6-11-6-10-6-11-6-13-6-11-6-10-6-13-|
G|-----------------------------------------|
D|-----------------------------------------|
A|-----------------------------------------|
D|-----------------------------------------|
     T    T    T    T    T    T    T    T

e|-----------------------------------------|
B|-8-15-8-13-8-11-8-13-8-15-8-13-8-11-8-15-|
G|-----------------------------------------|
D|-----------------------------------------|
A|-----------------------------------------|
D|-----------------------------------------|
     T    T    T    T    T    T    T    T

e|-----------------------------------------|
B|-6-13-6-11-6-10-6-11-6-13-6-11-6-10-6-13-|
G|-----------------------------------------|
D|-----------------------------------------|
A|-----------------------------------------|
D|-----------------------------------------|
     T    T    T    T    T    T    T    T

e|----------------------------------------|
B|-4-11-4-10-4-8-4-10-4-11-4-10-4-8-4-11--|
G|----------------------------------------|
D|----------------------------------------|
A|----------------------------------------|
D|----------------------------------------|
     T    T    T   T    T    T    T   T   

e|-----------------------------------------|
B|-3-10-3-10-3-10-3-10-3-10-3-10-3-10-3-10-|
G|-----------------------------------------|
D|-----------------------------------------|
A|-----------------------------------------|
D|-----------------------------------------|
     T    T    T    T    T    T    T    T

e|----------------------------------------|
B|-4-11-4-10-4-8-4-10-4-11-4-10-4-8-4-11--|
G|----------------------------------------|
D|----------------------------------------|
A|----------------------------------------|
D|----------------------------------------|
     T    T    T   T    T    T    T   T   

e|-----------------------------------------|
B|-3-10-3-10-3-10-3-10-3-10-3-10-3-10-3-10-|
G|-----------------------------------------|
D|-----------------------------------------|
A|-----------------------------------------|
D|-----------------------------------------|
     T    T    T    T    T    T    T    T

Solo Part B:

e|-------------------------------------|
B|-------------------------------------|
G|-7-3h5p3-7-3h5p3-7-3h5p3-7-3h5p3-----|
D|-------------------------------------|
A|-------------------------------------|
D|-------------------------------------|
   T       T       T       T             
                                          
e|-------------------------------------|
B|-------------------------------------|
G|-11-7p3-11-7p3-11-7p3-12-7p3-14-7p3--|
D|-------------------------------------|
A|-------------------------------------|
D|-------------------------------------|\
   T      T      T      T      T         | This is relavtively faster
                                         | tapping than normal (3 = 2)
e|-------------------------------------|/
B|-------------------------------------|
G|-14-7p3-14-7p3-14-7p3----------------|
D|-------------------------------------|
A|-------------------------------------|
D|-------------------------------------|
   T      T      T      T      T 

e|-------------------------------------|
B|-------------------------------------|
G|-7-3h5p3-7-3h5p3-7-3h5p3-7-3h5p3-----|
D|-------------------------------------|
A|-------------------------------------|
D|-------------------------------------|
   T       T       T       T             
                                          
e|-------------------------------------|
B|-------------------------------------|
G|-11-7p3-11-7p3-11-7p3-12-7p3-14-7p3--|
D|-------------------------------------|
A|-------------------------------------|
D|-------------------------------------|\
   T      T      T      T      T         | This is relavtively faster
                                         | tapping than normal (3 = 2)
e|-------------------------------------|/
B|-------------------------------------|
G|-14-7p3-14-7p3-14-7p3----------------|
D|-------------------------------------|
A|-------------------------------------|
D|-------------------------------------|
   T      T      T      T      T 


e|-------------------------------------|
B|-11p10h11p10h11p10h11p10h13p10h13p10-|
G|-------------------------------------|
D|-------------------------------------|
A|-------------------------------------|
D|-------------------------------------|

e|---------------------------------|
B|-11p10h11p10-10p9h10p9h10p9h10p9-|
G|---------------------------------|
D|---------------------------------|
A|---------------------------------|
D|---------------------------------|

e|-----------------------|
B|-11p10h11p10-10p9h10p9-|
G|-----------------------|
D|-----------------------|
A|-----------------------|
D|-----------------------|

e|-------------------------------------|
B|-11p10h11p10h11p10h11p10h13p10h13p10-|
G|-------------------------------------|
D|-------------------------------------|
A|-------------------------------------|
D|-------------------------------------|

e|-----------------|
B|-11p10h11p10-10~-|
G|-----------------|
D|-----------------|
A|-----------------|
D|-----------------|

Solo Part C:

e|------------------------------|
B|------------------------------|
G|---------5-7------7-7-777-8-5-|
D|-/5--7-8-----5-5--------------|
A|------------------------------|
D|------------------------------|

e|--------------------------|
B|--------------------------|
G|-5/8--10-8h10p8-7--7------|
D|----------------------7-7-|
A|--------------------------|
D|--------------------------|

e|--------------------------|
B|--------------8-8/11-10~--|
G|-5h7-7/8-8-10-------------|
D|--------------------------|
A|--------------------------|
D|--------------------------|

Part D:

e|--------------8-------101010-10-11-8-|
B|-/8--8--10-11---888-8----------------|
G|-------------------------------------|
D|-------------------------------------|
A|-------------------------------------|
D|-------------------------------------|

e|-10/11-11-11b13-11-10--10-10-101011-11b13-11-10-|
B|------------------------------------------------|
G|------------------------------------------------|
D|------------------------------------------------|
A|------------------------------------------------|
D|------------------------------------------------|

e|-10-13b15-13b15--18p15-17p15-18p15-20p15-|
B|-----------------------------------------|
G|-----------------------------------------|
D|-----------------------------------------|
A|-----------------------------------------|
D|-----------------------------------------|

e|-13b15-13b15--18p15-17p15-18p15-20p15-|
B|--------------------------------------|
G|--------------------------------------|
D|--------------------------------------|
A|--------------------------------------|
D|--------------------------------------|

e|-10-11-11b13-11-10~-|
B|--------------------|
G|--------------------|
D|--------------------|
A|--------------------|
D|--------------------|

e|-10-11-11/13-13/15-17b18-17~-|
B|-----------------------------|
G|-----------------------------|
D|-----------------------------|
A|-----------------------------|
D|-----------------------------|

Verse 3: Chords with a little tidbit from the solo in there.
  
 G5                 F5
Lovers of the dark, step into the light 
   G5                              F5
We know your brave, youve come to see us dream
D#5          D5           D#5        D5
Many times before, now we open up a door

     G5            F5 G5          F5
e|--------------8-------101010-10-11-8-|
B|-/8--8--10-11---888-8----------------|
G|-------------------------------------|
D|-------------------------------------|
A|-------------------------------------|
D|-------------------------------------|
  A world... bright......Banshee scream

  D#5                 D5    D#5              D5    G5
e|-10/11-11-11b13-11-10--10-10-101011-11b13-11-10--10|
B|---------------------------------------------------|
G|---------------------------------------------------|
D|---------------------------------------------------|
A|---------------------------------------------------|
D|---------------------------------------------------|
  Hear the  banshee  scream      ...Banshee scream

Outro:
A bass solo-thing here and then:

Scream................
e|-----------------|
B|-----------------|
G|-----------------|
D|-5---------------|
A|-5---------------|
D|-5---------------|
   >>>>>>>>>>>>>>>
   FADE IN

Good luck. I'd be ever so grateful if you left me a comment and/or rating!
Добавлено: 24.05.2012
Вам также может быть интересно:
Другие материалы по этой песне:

Страница создана 07.04.2012
http://primanota.ru/brocas-helm/cry-of-the-banshee-chords.htm
Привет, Гость.
Предлагаем пройти революционный курс по гитаре.
Подарок от PrimaNota.Ru, забирай!