PrimaNota.ru - самый крупный в мире бесплатный архив песенных текстов, аккордов, табулатур и нот


Broadway - Im On A Boat - таба, бас-таба, видео

Регистрация Запомнить меня
Войти через:  Facebook Google Twitter Vk Yandex Mail.ru

Broadway - Im On A Boat - таба, бас-таба, видео

Печатать
Просмотров: 174
-----------------------------------------------------------------------------
                             I'm On A Boat - Broadway
-----------------------------------------------------------------------------


Tuning: Drop C

(0:16)“I'm on a boat,…”

e|---------------------------------------------------------------------------|
B|---------------------------------------------------------------------------|
G|---------------------------------------------------------------------------|
D|-9-----11-12-------5-------7------99999999----------------------------------|
A|-9-----11-12-------5-------7------99999999----------------------------------|
D|-9-----11-12-------5-------7------99999999----------------------------------|

(0:28) “I'm on a boat motherf**ker…”
|---------------------------------------------------------------------------|
|---------------------------------------------------------------------------|
|---------------------------------------------------------------------------|
|-9-------11------12-------5-------7-----------------------------------------|
|-9-(12x)-11-(4x)-12-(16x)-5-(16x)-7-(16x)-----------------------------------|
|-9-------11------12-------5-------7-----------------------------------------|
   .       .      .        .       .
(0:40) “Take a picture trick…”
|---------------------------------------------------------------------------|
|---------------------------------------------------------------------------|
|---------------------------------------------------------------------------|
|-99-99-9-11-1212-1212-12-12-55-55-5-5-77-77-7-7-----------------------------|
|-99-99-9-11-1212-1212-12-12-55-55-5-5-77-77-7-7-----------------------------|
|-99-99-9-11-1212-1212-12-12-55-55-5-5-77-77-7-7-----------------------------|

Repeat the last two parts for (0:52-1:14)

(1:15) “get the f**k up,…”
|----------------------------------------------------------------------------|
|----------------------------------------------------------------------------|
|----------------------------------------------------------------------------|
|-999999999999999999999999-9-999-9-999-999111111-12-121212-12-121212-12121212-|
|-999999999999999999999999-9-999-9-999-999111111-12-121212-12-121212-12121212-|
|-999999999999999999999999-9-999-9-999-999111111-12-121212-12-121212-12121212-|
  ........................ . ... . ... ........ .  . . .  .  . . .  . . . .
|---------------------------------------------------------------------------|
|---------------------------------------------------------------------------|
|---------------------------------------------------------------------------|
|12121212-5-555-5-555-55555555-7-777-7-777-77777777-------------------------|
|12121212-5-555-5-555-55555555-7-777-7-777-77777777-------------------------|
|12121212-5-555-5-555-55555555-7-777-7-777-77777777-------------------------|
 . . . .  . ... . ... ........ . ... . ... ........

(1:31) “Hey ma if you could see me now,”
|-----------------------------------------------------------------------------|
|-----------------------------------------------------------------------------|
|-----------------------------------------------------------------------------|
|-9-9-9---999-111111—-12-12-12---121212-121212—-5-5-5---555-3555—-7-7----777-777-|
|-9-9-9---999-111111—-12-12-12---121212-121212—-5-5-5---555-3555—-7-7----777-777-|
|-9-9-9---999-111111—-12-12-12---121212-121212—-5-5-5---555-3555—-7-7----777-777-|
  . . .   ... ...  .  .  .   . . .  . . .    . . .   ... ...  . . .   ... ...

(1:41)
|---------------------------------------------------------------------------|
|---------------------------------------------------------------------------|
|---------------------------------------------------------------------------|
|-7-7-7777-7-77-77--7-77-77—9/////---9/////---9/////---9/////------0~-------|
|-7-7-7777-7-77-77--7-77-77—9/////---9/////---9/////---9/////------0~-------|
|-7-7-7777-7-77-77--7-77-77—9/////---9/////---9/////---9/////------0~-------|
                                                                   .

(1:58) BREAKDOWN
|----------------------------------------------------------------------------|
|----------------------------------------------------------------------------|
|----------------------------------------------------------------------------|
|----------------------------------------------------------------------------|
|-0-00000-000-0-0-0--0-00000-000-0-0-0--0-00000-000-0-0-0--0-00000-000—00000-|
|-0-00000-000-0-0-0--0-00000-000-0-0-0--0-00000-000-0-0-0--0-00000-000—00000-|
  . ..... ... . . .  . ..... ... . . .  . ..... ... . . .  . ..... ... .....

|---------------------------------------------------------------------------|
|---------------------------------------------------------------------------|
|---------------------------------------------------------------------------|
|-1-11111~-----------1-11111~-----------1-11111~-----------1-11111~---5-7-9-|
|-1-11111~-----------1-11111~-----------1-11111~-----------1-11111~---5-7-9-|
|-0-00000~-----------0-00000~-----------0-00000~-----------0-00000~---5-7-9-|
  . .....            . .....            . .....            . .....

(2:34) “I never thought I'd see the day”
|------------9--------------------14--------------5-------------------------|
|-------12-----12-----------15-------15-------8-----8-----------------------|
|-----11----11-------------14----14-----------7---7-------------------------|
|-9-9--------------12-12----------------5-5---------------------------------|
|-9~---------------12~------------------5~----------------------------------|
|-9~---------------12~------------------5~----------------------------------|

(2:48) “I never thought..”
|---------------------------------------------------------------------------|
|---------------------------------------------------------------------------|
|---------------------------------------------------------------------------|
|-9--------12--------5--------7-------------(2x)----------------------------|
|-9-(16x)--12-(16x)--5-(16x)--7-(16x)---------------------------------------|
|-9--------12--------5--------7-------------(2x)----------------------------|


| /  slide up
| ~  vibrato
| .  Mute note

   ============================================================================
Добавлено: 07.06.2012
Другие материалы по этой песне:

Страница создана 01.04.2012
http://primanota.ru/broadway/im-on-a-boat-chords.htm
Привет, Гость.
Предлагаем пройти революционный курс по гитаре.
Подарок от PrimaNota.Ru, забирай!