PrimaNota.ru - самый крупный в мире бесплатный архив песенных текстов, аккордов, табулатур и нот


Broadway - Gotta Love That Southern Charm - таба, видео

Регистрация Запомнить меня
Войти через:  Facebook Google Twitter Vk Yandex Mail.ru

Broadway - Gotta Love That Southern Charm - таба, видео

Печатать
Просмотров: 131
Broadway - Gotta Love That Southern Charm SOLO tab
Tabbed by Ray.

This is 99% accurate to how Broadway plays it live
FOLLOW THE COVER!


DROP D tuning

E|----------------------------------------------------------------------------------|--
B|--5----------------------------8b10r8---5-----5--8--5-----------------------------|--
G|--5--5--7--5-----5-------------------------7-----------7b9--7b9r7--5-----5--4-----|--
D|--------------7-----5--7--5-------------------------------------------7--------5--|--
A|----------------------------------------------------------------------------------|--
D|----------------------------------------------------------------------------------|--


E|------------------------------------------------------|--
B|------------------------------------------8-----8/10--|--
G|-------------------------------------5/7-----7--------|--
D|--5/7--10--7--7--10--9\5-------5--0-------------------|--
A|--------------------------5/7-------------------------|--
D|------------------------------------------------------|--


E|--10--8--7h8p7--------8------8h10p8---------------|--
B|----------------8/10-----10----------12--10--8\5--|--
G|--------------------------------------------------|--
D|--------------------------------------------------|--
A|--------------------------------------------------|--
D|--------------------------------------------------|--


E|--8--7--5h7p5-------------------------------------------------------------------------|--
B|---------------8--7--5h7p5------------------------------------------------------------|--
G|----------------------------7--5--4h5p4------------5--------5----------7--------7-----|--
D|-----------------------------------------5/7--5/7-----7--7-----5--5/9-----9--9-----9--|--
A|--------------------------------------------------------------------------------------|--
D|--------------------------------------------------------------------------------------|--


E|-------12-------12-------12-------15-------15-------15----------------------------------|--
B|--15b------15b------15b------18b------18b------18b------18b--18--15---------------------|--
G|---------------------------------------------------------------------19b21--19--17------|--
D|------------------------------------------------------------------------------------19--|--
A|----------------------------------------------------------------------------------------|--
D|----------------------------------------------------------------------------------------|--

Follow this! http://youtu.be/_c1MthCHLrc
Добавлено: 29.10.2013
Другие материалы по этой песне:

Страница создана 06.07.2013
http://primanota.ru/broadway/gotta-love-that-southern-charm-chords.htm
Привет, Гость.
Предлагаем пройти революционный курс по гитаре.
Подарок от PrimaNota.Ru, забирай!