PrimaNota.ru - самый крупный в мире бесплатный архив песенных текстов, аккордов, табулатур и нот


Broadway Calls - To The Sheets - таба, видео

Регистрация Запомнить меня
Войти через:  Facebook Google Twitter Vk Yandex Mail.ru

Broadway Calls - To The Sheets - таба, видео

Печатать
Просмотров: 135
BROADWAY CALLS - TO THE SHEETS

Tune 1/2 step down!


Intro:

e|------------------------------------------------------------------------|
B|------------------------------------------------------------------------|
G|-9-9-9-----11-11-11-11-8-8-6-6-8-8---9-9-9-----11-11-11-11-8-8-6-6-4-4--|
D|-9-9-9-9---x--x--x--x--x-x-x-x-x-x---9-9-9-9---x--x--x--x--x-x-x-x-x-x--|
A|-7-7-7-9---9--9--9--9--6-6-4-4-6-6---7-7-7-9---9--9--9--9--6-6-4-4-2-2--|
E|-------7-----------------------------------7----------------------------|

e|------------------------------------------------------------------|
B|------------------------------------------------------------------|
G|-6-6-6-----------------9---9-9-9-9-9-9----------------------------|
D|-6-6-6-6---6-6-6-6-6-6-9---9-9-9-9-9-9-9---9-9-9-9-9-9-9-9-9-9-9--|
A|-4-4-4-6---6-6-6-6-6-6-7---7-7-7-7-7-7-9---9-9-9-9-9-9-9-9-9-9-9--|
E|-------4---4-4-4-4-4-4-----------------7---7-7-7-7-7-7-7-7-7-7-7--|



Vers:(2x)

e|----------------------------------------------------------------|
B|----------------------------------------------------------------|
G|-9-9-9---------------------------9-9-9--------------------------|
D|-9-9-9-9---9-9-9-9-9-9-9-9-9-9---9-9-9-9---9-9-9-9-9-9-9-9-9-9--|
A|-7-7-7-9---9-9-9-9-9-9-9-9-9-9---7-7-7-9---9-9-9-9-9-9-9-9-9-9--|
E|-------7---7-7-7-7-7-7-7-7-7-7---------7---7-7-7-7-7-7-7-7-7-7--|

e|----------------------------------------------------------2nd Time:--|
B|--------------------------------------------------------->Pickslide<-|
G|--------------------------9---9-9-9-9-9-9----------------------------|
D|-11-11-11-6---6-6-6-6-6-6-9---9-9-9-9-9-9-9---9-9-9-9-9-9-9-9-9-9-9--|
A|-11-11-11-6---6-6-6-6-6-6-7---7-7-7-7-7-7-9---9-9-9-9-9-9-9-9-9-9-9--|
E|-9--9--9--4---4-4-4-4-4-4-----------------7---7-7-7-7-7-7-7-7-7-7-7--|



Chorus:

e|------------------------------------------------------------------------------------------------|
B|------------------------------------------------------------------------------------------------|
G|--------------------------------------------------4--4--4--4--4--4--4--4------------------------|
D|--6--6--6--6--6--6--6--6--2--2--2--2--2--2--2--2--4--4--4--4--4--4--4--4--4--4--4--4--4--4--4--4|
A|--6--6--6--6--6--6--6--6--2--2--2--2--2--2--2--2--2--2--2--2--2--2--2--2--4--4--4--4--4--4--4--4|
E|--4--4--4--4--4--4--4--4--0--0--0--0--0--0--0--0--------------------------2--2--2--2--2--2--2--2|


e|------------------------------------------------------------------------------------------------|
B|------------------------------------------------------------------------------------------------|
G|------------------------------------------------------------------------------------------------|
D|--6--6--6--6--6--6--6--6--2--2--2--2--2--2--2--2--4-----------------------2---2--4--------------|
A|--6--6--6--6--6--6--6--6--2--2--2--2--2--2--2--2--4-Let Ring--------------2---2--4-Let Ring-----|
E|--4--4--4--4--4--4--4--4--0--0--0--0--0--0--0--0--2-----------------------0---0--2--------------|



Riff:

e|------------------------------------------------------------------------|
B|------------------------------------------------------------------------|
G|-9-9-9-----11-11-11-11-8-8-6-6-8-8---9-9-9-----11-11-11-11-8-8-6-6-4-4--|
D|-9-9-9-9---x--x--x--x--x-x-x-x-x-x---9-9-9-9---x--x--x--x--x-x-x-x-x-x--|
A|-7-7-7-9---9--9--9--9--6-6-4-4-6-6---7-7-7-9---9--9--9--9--6-6-4-4-2-2--|
E|-------7-----------------------------------7----------------------------|



Vers:(2x)

e|----------------------------------------------------------------|
B|----------------------------------------------------------------|
G|-9-9-9---------------------------9-9-9--------------------------|
D|-9-9-9-9-------------------------9-9-9-9------------------------|
A|-7-7-7-9---9-9-9-9-9-9-9-9-9-9---7-7-7-9---9-9-9-9-9-9-9-9-9-9--|
E|-------7---7-7-7-7-7-7-7-7-7-7---------7---7-7-7-7-7-7-7-7-7-7--|
          PM x x x x x x x x x x             x x x x x x x x x x


e|----------------------------------------------------------2nd Time:--|
B|--------------------------------------------------------->Pickslide<-|
G|--------------------------9---9-9-9-9-9-9----------------------------|
D|-11-11-11-6---6-6-6-6-6-6-9---9-9-9-9-9-9-9---9-9-9-9-9-9-9-9-9-9-9--|
A|-11-11-11-6---6-6-6-6-6-6-7---7-7-7-7-7-7-9---9-9-9-9-9-9-9-9-9-9-9--|
E|-9--9--9--4---4-4-4-4-4-4-----------------7---7-7-7-7-7-7-7-7-7-7-7--|



Chorus:

e|------------------------------------------------------------------------------------------------|
B|------------------------------------------------------------------------------------------------|
G|--------------------------------------------------4--4--4--4--4--4--4--4------------------------|
D|--6--6--6--6--6--6--6--6--2--2--2--2--2--2--2--2--4--4--4--4--4--4--4--4--4--4--4--4--4--4--4--4|
A|--6--6--6--6--6--6--6--6--2--2--2--2--2--2--2--2--2--2--2--2--2--2--2--2--4--4--4--4--4--4--4--4|
E|--4--4--4--4--4--4--4--4--0--0--0--0--0--0--0--0--------------------------2--2--2--2--2--2--2--2|


e|------------------------------------------------------------------------------------------------|
B|------------------------------------------------------------------------------------------------|
G|------------------------------------------------------------------------------------------------|
D|--6--6--6--6--6--6--6--6--2--2--2--2--2--2--2--2--4-----------------------2---2--4--------------|
A|--6--6--6--6--6--6--6--6--2--2--2--2--2--2--2--2--4-Let Ring--------------2---2--4-Let Ring-----|
E|--4--4--4--4--4--4--4--4--0--0--0--0--0--0--0--0--2-----------------------0---0--2--------------|



Interlude:

Guitar 1:
e|------------------------------------------------------------------------------------------------|
B|------------------------------------------------------------------------------------------------|
G|--4--4--4--4--4--4--4--4------------------------------------------------------------------------|
D|--4--4--4--4--4--4--4--4--6--6--6--6--6--6--6--6--2--2--2--2--2--2--2--2--4--4--4--4--4--4--4--4|
A|--2--2--2--2--2--2--2--2--6--6--6--6--6--6--6--6--2--2--2--2--2--2--2--2--4--4--4--4--4--4--4--4|
E|--------------------------4--4--4--4--4--4--4--4--0--0--0--0--0--0--0--0--2--2--2--2--2--2--2--2|

Guitar2:
e|------------------------------------------------------------------------------------------------|
B|------------------------------------------------------------------------------------------------|
G|--8-9---------------------8-9---------------------8-9---------------------6--6--6--6--6--6--6--6|
D|--x-x--9------------------x-x--9------------------x-x--9------------------x--x--x--x--x--x--x--x|
A|--6-7--x------------------6-7--x------------------6-7--x------------------4--4--4--4--4--4--4--4|
E|-------7-----------------------7-----------------------7----------------------------------------|



Bridge:(4x)

e|------------------------------------------------------------------------------------------------|
B|------------------------------------------------------------------------------------------------|
G|--4--4--4--4--4--4--4--4------------------------------------------------------------------------|
D|--4--4--4--4--4--4--4--4--6--6--6--6--6--6--6--6--2--2--2--2--2--2--2--2--4--4--4--4--4--4--4--4|
A|--2--2--2--2--2--2--2--2--6--6--6--6--6--6--6--6--2--2--2--2--2--2--2--2--4--4--4--4--4--4--4--4|
E|--------------------------4--4--4--4--4--4--4--4--0--0--0--0--0--0--0--0--2--2--2--2--2--2--2--2|
   I'm just a kid, with...

Ending:

e|------------------------------------------------------------------------------------------------|
B|------------------------------------------------------------------------------------------------|
G|--4---------------------------------------------------------------------------------------------|
D|--4-Let Ring------------------------------------------------------------------------------------|
A|--2---------------------------------------------------------------------------------------------|
E|------------------------------------------------------------------------------------------------|
   I'm just a kid, with...
Добавлено: 28.02.2012
Другие материалы по этой песне:
  • Аккорды и текст

Страница создана 28.02.2012
http://primanota.ru/broadway-calls/to-the-sheets-chords.htm
Привет, Гость.
Предлагаем пройти революционный курс по гитаре.
Подарок от PrimaNota.Ru, забирай!