PrimaNota.ru - самый крупный в мире бесплатный архив песенных текстов, аккордов, табулатур и нот


Broadway Calls - Be All You Cant Be - бас-таба, видео

Регистрация Запомнить меня
Войти через:  Facebook Google Twitter Vk Yandex Mail.ru

Broadway Calls - Be All You Cant Be - бас-таба, видео

Печатать
Просмотров: 52
Broadway Calls - Be All You Can't Be

Tabbed by: XxThreeCheersxX
E-mail: burdickash@gmail.com

Tuning: Standard

Intro
G|--------------------------------------------------------------------|
D|--------------------------------------------------------------------|
A|-18\6-6-6-6-6-6-6-6-6-6-6-6-6-6-6-6-6-6-6-6-6-6-6-6-6-6-6-6-6-6-6-6-|
E|--------------------------------------------------------------------|

Verse x 4
G|---------------------------------------------------------------|
D|---------------------------------------------------------------|
A|-6-6-6-6-6-6-6-6-6-6-6-6-6-6-6-6-------------------------------|
E|---------------------------------6-6-6-6-6-6-6-6-4-4-4-4-4-4-4-|

Pre-Chorus
G|-------------------------------------|
D|-------------------------------------|
A|-------------------------------------| x 3
E|-3-3-3-3-4-4-4-4-6-6-6-6/18-18-18-18-|

G|---------------------------------|
D|---------------------------------|
A|---------------------------------|
E|-6-6-6-6-6-6-6-6-6-6-6-6-6-6-6-6-|

Chorus x 2
G|-----------------------------------------------------------------|
D|-----------------------------------------------------------------|
A|-6-6-6-6-6-6-6-6-------------------------------------------------|
E|-----------------4-4-4-4-4-4-4-4-6-6-6-6-6-6-6-6-6-6-6-6-6-6-6-6-|

G|-----------------------------------------------------------------|
D|-----------------------------------------------------------------|
A|---------------------------------6-6-6-6-6-6-6-6-----------------|
E|-4-4-4-4-4-4-4-4-4-4-4-4-4-4-4-4-----------------6-6-6-6-6-6-6-6-|

Intro (minus the slide)

Verse

Chorus x 2

Bridge
G|---------------------------------------------------|
D|---------------------------------------------------|
A|-6----5--------------------------------------------|
E|-----------8----6----4-4-4-4-4-4-4-4-6-6-6-6-6x----|

Key Change
G|-----------------------------------------------------------------|
D|-----------------------------------------------------------------|
A|-----------------1-1-1-1-1-1-1-1-3-3-3-3-3-3-3-3-1-1-1-1-1-1-1-1-| x 3
E|-1-1-1-1-1-1-1-1-------------------------------------------------|

G|---------------2-3-3-3-2-2-2-----------|
D|-3-3-3-3-3-3-5---------------3-3-------|
A|---------------------------------3x----|
E|---------------------------------------|

Outro (slow down on the third repeat)
G|-----------------------------------------------------------------|
D|-----------------------------------------------------------------|
A|-----------------1-1-1-1-1-1-1-1-3-3-3-3-3-3-3-3-1-1-1-1-1-1-1-1-| x 3
E|-1-1-1-1-1-1-1-1-------------------------------------------------|

G|--------------|
D|--------------|
A|--------------|
E|-1~-----------|

Happy playing!  

| /  slide up
| \  slide down
| h  hammer-on
| p  pull-off
| ~  vibrato
| +  harmonic
| x  Mute note
=====================================================================================
Добавлено: 31.12.2015
Другие материалы по этой песне:
  • Аккорды и текст

Страница создана 31.12.2015
http://primanota.ru/broadway-calls/be-all-you-cant-be-chords.htm
Привет, Гость.
Предлагаем пройти революционный курс по гитаре.
Подарок от PrimaNota.Ru, забирай!