PrimaNota.ru - самый крупный в мире бесплатный архив песенных текстов, аккордов, табулатур и нот


Broadway Calls - Back To Oregon - таба, видео

Регистрация Запомнить меня
Войти через:  Facebook Google Twitter Vk Yandex Mail.ru

Broadway Calls - Back To Oregon - таба, видео

Печатать
Просмотров: 135
Уроки эстрадного вокала в Санкт-Петербурге
BROADWAY CALLS - BACK TO OREGON
Broadway Calls (2007)

maanuueell@gmail.com

SPECIAL CHORDS:
    C*  A*   F*  F5'
e|-------------------------------------------------|
B|-------------------------------------------------|
G|--5-----------10---------------------------------|
D|--x---7----3--10---------------------------------|
A|--3---x----x---8---------------------------------|
E|------5----1-------------------------------------|

C*
I want to run 1,000 miles home.
A*                              F*
Break down all walls that block me from your bed.
C*                                   A*
Capture your eyes, as I explore your thighs
                          F5 (PALM MUTE)
And try to explain what's going on inside my head.
C5
Girl I've run all across this land.
A5                       F5                      C5
I've seen waves crash on beaches and steal my breath.
(C5)
I've seen snow on the hilltops,
A5                       F5
Perfect and smooth as my hand navigating your chest.

RIFF:
e|----------------------------------|
B|-------- PLAY 2 TIMES ------------|
G|----------------------------------|
D|----------------------------------|
A|-----3-----3-----2---2h3-2-0------|
E|---0---0-1---1-3---3---------3----|

Oh I've seen California.
All the mountains and deserts and streams.

RIFF:
e|-----------------------------------------------------------------|
B|-----------------------------------------------------------------|
G|-----------------------------------------------------------------|
D|-----------------------------------------------------------------|
A|-----3-----3-----2----------------------------------5-5-5-5------|
E|---0---0-1---1-3---3-5--5-0-1-1-1-1-1-1-1-1-3-3-3-3-3-3-3-3------|

As the monuments crumble and erode away,
I know you're back home waiting for me.

C5
And now I depend on
F5'      G5
my sense of adventure,
C5
To get through all the rough times,
F5'         G5
'til we get back together.

C*
I want to run back to Oregon.
A*                          F*
Fall every tree that blocks me from my street.
C*
Up in the hills, watch the city lights,
A*                      F*
I won't be home 'til I have Portland under my feet.
C5
Girl I've run all across this land.
A5                       F5                      C5
I've seen waves crash on beaches and steal my breath.
(C5)
I've seen snow on the hilltops,
A5                       F5
Perfect and smooth as my hand navigating your chest.


RIFF:
e|----------------------------------|
B|-------- PLAY 2 TIMES ------------|
G|----------------------------------|
D|----------------------------------|
A|-----3-----3-----2---2h3-2-0------|
E|---0---0-1---1-3---3---------3----|

Oh I've seen California.
All the basements and stages and scenes.

RIFF:
e|-----------------------------------------------------------------|
B|-----------------------------------------------------------------|
G|-----------------------------------------------------------------|
D|-----------------------------------------------------------------|
A|-----3-----3-----2----------------------------------5-5-5-5------|
E|---0---0-1---1-3---3-5--5-0-1-1-1-1-1-1-1-1-3-3-3-3-3-3-3-3------|

I could laugh as it all falls into the sea,
And know you're back home waiting for me.

C5
And now I depend on
F5'      G5
my sense of adventure,
C5
To get through all the rough times,
F5'         G5
'til we get back together.
C5
And now I depend on
F5'      G5
my sense of adventure,
C5
To get through all the rough times,
F5'         G5
'til we get back together.

RIFF / SOLO:
e|------------------|
B|------------------|
G|--5-5-5-----------|
D|--5-5-5-2-2-2-3~--|
A|--3-3-3-2-2-2-3~--|
E|--------0-0-0-1~--|

e|---8~~~--------------------------------------------|
B|--10~~~-----8b10-10-10-10-10r8---------------------|
G|-------------------------------9~--9-9-10-9--------|
D|--------10----------------------------------12-10--|
A|---------------------------------------------------|
E|---------------------------------------------------|

e|---------------10b12-12-12-12r10-8~~--|
B|------8b10r8--------------------------|
G|-------------9------------------------|
D|--10----------------------------------|
A|--------------------------------------|
E|--------------------------------------|

e|---8~~---------------------1--|
B|--10~~--8~~----------------1--|
G|--------7~~-------0--------2--|
D|----------------2-------2--3--|
A|--------------3-------2----3--|
E|--------------------0------1--|

CLEAN PART
(F)        Am               G                    C        Em  F
When I get home, I'm up for anything, I'm up for anything.       (REPEAT 3x)

(F)        Am               G      DISTORTION >> C5       E5  F5
When I get home, I'm up for anything, I'm up for anything.

e|---8~~-------|
B|--10~~--8~~--|
G|--------7~~--|
D|-------------|
A|-------------|
E|-------------|

C5
And now I depend on
F5'      G5
my sense of adventure,
C5
To get through all the rough times,
F5'         G5
'til we get back together.
C5
And now I depend on
F5'      G5
my sense of adventure,
C5
To get through all the rough times,
F5'         G5             C5       E5  F5
'til we get back together.
Добавлено: 09.04.2012
Другие материалы по этой песне:
  • Аккорды и текст

Страница создана 09.04.2012
http://primanota.ru/broadway-calls/back-to-oregon-chords.htm
Привет, Гость.
Предлагаем пройти революционный курс по гитаре.
Подарок от PrimaNota.Ru, забирай!