PrimaNota.ru - самый крупный в мире бесплатный архив песенных текстов, аккордов, табулатур и нот


Brns - Void - бас-таба, видео

Регистрация Запомнить меня
Войти через:  Facebook Google Twitter Vk Yandex Mail.ru

Brns - Void - бас-таба, видео

Печатать
Просмотров: 52
Уроки эстрадного вокала в Санкт-Петербурге
Not played on a bass but on a Korg or something:
2:37 - 3:29
G|---------------------|---------------------|
D|---------------------|---------------------|
A|-----------9----12---|-----------9---------|  x4
E|-10------------------|-10-------------9----|

On bass:
4:01
G|-----|---------------------|---------------------|----------------------|
D|-----|-----9--11-----------|-----9--11-----------|-----9---11-----------|
A|-----|----9------12--\7--9-|----9------12--\7----|----9-------12--------|
E|-5-5-|-7-------------------|-7-----------------5-|-7---------------5-5--|

4:20
G|---------------------|------------------------|-----------------------------|------------------------------|
D|-----9--11-----------|-----9--11----------7---|--------12---11h12--11-------|-/9---9--9-/11----------------|
A|----9------12--\7-9--|----9------12--\7h9---9-|------12---------------12\7--|---------------12--11h12-11-9-|
E|-7-------------------|-7----------------------|-10--------------------------|-----7-7----------------------|

4:47
G|---------------------|------------------------|-----------------------------|----------------------|
D|-----9--11-----------|-----9--11----------7---|--------12---11h12--11-------|-/9---9--9-/11--12----|
A|----9------12--\7--9-|----9------12--\7h9---9-|------12---------------12\7--|----------------------|
E|-7-------------------|-7----------------------|-10--------------------------|-----7-7--------------|
Добавлено: 09.08.2015
Другие материалы по этой песне:
  • Аккорды и текст

Страница создана 09.08.2015
http://primanota.ru/brns/void-chords.htm
Привет, Гость.
Предлагаем пройти революционный курс по гитаре.
Подарок от PrimaNota.Ru, забирай!