PrimaNota.ru - самый крупный в мире бесплатный архив песенных текстов, аккордов, табулатур и нот


Brixton Robbers - There Once Was A Taxi Driver - бас-таба, видео

Регистрация Запомнить меня
Войти через:  Facebook Google Twitter Vk Yandex Mail.ru

Brixton Robbers - There Once Was A Taxi Driver - бас-таба, видео

Печатать
Просмотров: 110
Intro

G|--------|--------|--------|--------|--------|--------|--------|----|
D|--------|--------|44444444|44444444|--------|--------|44444444|----|
A|--------|44444444|--------|--------|--------|44444444|--------|24--|
E|22222222|--------|--------|--------|22222222|--------|--------|--42|

G|--------|--------|--------|----|
D|--------|--------|--------|----|
A|--------|44444444|--------|42--|
E|22222222|--------|22222222|--42|

Verse 1
G|--------|--------|--------|--------|--------|--------|--------|--------|
D|--------|--------|--------|--------|--------|--------|--------|--------|
A|--------|44444444|--------|--------|--------|44444444|--------|--------|
E|22222222|--------|22222222|22222222|22222222|--------|22222222|22222222|

G|--------|--------|------|------|--------|--------|-----|-----|
D|--------|--------|44-44-|44-44-|--------|--------|44-4-|44-4-|
A|--------|44444444|------|------|--------|44444444|-----|-----|
E|22222222|--------|------|------|22222222|--------|-----|-----|

Chorus

G |--------|--------|--------|--------|--------|--------|--------|--------|  
D.|--------|--------|--------|--------|--------|--------|--------|--------|.
A.|00000000|44444444|--------|--------|00000000|44444444|--------|--------|.
E |--------|--------|22222222|00000000|--------|--------|2-22-2-0|2-22-2-0|  

Verse 2

G|--------|--------|--------|----|--------|--------|--------|--------|--------|--------|
D|--------|--------|--------|----|--------|--------|--------|--------|--------|--------|
A|--------|44444444|--------|42--|--------|44444444|--------|--------|--------|44444444|
E|22222222|--------|22222222|--42|22222222|--------|22222222|22222222|22222222|--------|

G|--------|--------|--------|--------|------|------|--------|--------|------|------|
D|--------|--------|--------|--------|44-44-|44-44-|--------|--------|44-44-|44-44-|
A|--------|--------|--------|44444444|------|------|--------|44444444|------|------|
E|22222222|22222222|22222222|--------|------|------|22222222|--------|------|------|

Chorus

G |--------|--------|--------|--------|--------|--------|--------|--------|  
D.|--------|--------|--------|--------|--------|--------|--------|--------|.
A.|00000000|44444444|--------|--------|00000000|44444444|--------|--------|.
E |--------|--------|22222222|00000000|--------|--------|2-22-2-0|2-22-2-0|  


Bridge/Guitar Solo
G|--------|--------|--------|--------|--------|--------|--------|--------|
D|--------|--------|44444444|44444444|--------|--------|44444444|4x------|
A|--------|44444444|--------|--------|--------|44444444|--------|--------|
E|22222222|--------|--------|--------|22222222|--------|--------|--------|

G|--------|--------|--------|--------|--------|--------|--------|--------|
D|--------|--------|--------|--------|--------|--------|--------|--------|
A|--------|44444444|--------|--------|--------|44444444|--------|--------|
E|22222222|--------|22222222|22222222|22222222|--------|22222222|22222222|

G|--------|--------|--------|--------|--------|--------|--------|--------|
D|--------|--------|--------|--------|--------|--------|44444444|4x------|
A|--------|44444444|--------|--------|--------|44444444|--------|--------|
E|22222222|--------|22222222|22222222|22222222|--------|--------|--------|

Chorus

G |--------|--------|--------|--------|--------|--------|--------|--------|  
D.|--------|--------|--------|--------|--------|--------|--------|--------|.
A.|00000000|44444444|--------|--------|00000000|44444444|--------|--------|.
E |--------|--------|22222222|00000000|--------|--------|2-22-2-0|2-22-2-0| 

Outro

 G|--------|--------|--------|--------|--------|--------|--------|--------|--|
 D|--------|--------|--------|--------|--------|--------|--------|--------|--|
 A|00000000|44444444|--------|--------|00000000|44444444|--------|--------|--|
 E|--------|--------|22222222|00000000|--------|--------|2-22-2-0|2-22-2-0|2x|

Check them out here:
http://www.myspace.com/brixtonrobbers
Добавлено: 06.08.2013
Другие материалы по этой песне:
  • Аккорды и текст

Страница создана 06.08.2013
http://primanota.ru/brixton-robbers/there-once-was-a-taxi-driver-chords.htm
Привет, Гость.
Предлагаем пройти революционный курс по гитаре.
Подарок от PrimaNota.Ru, забирай!