PrimaNota.ru - самый крупный в мире бесплатный архив песенных текстов, аккордов, табулатур и нот


Britny Fox - Grilschool - таба, видео

Регистрация Запомнить меня
Войти через:  Facebook Google Twitter Vk Yandex Mail.ru

Britny Fox - Grilschool - таба, видео

Печатать
Просмотров: 171
Britny Fox
Girlschool
Album: Britny Fox
Autor: Dizzy Davidson

BRITNY FOX ROCKS!!!!

Verse-Chorus

e|-------------------------------------------------------------|
B|-------------------------------------------------------------|
G|-2--0-0-----2--0—0----2--------------------------------------|
D|-2--0-0-----2--0-0----2--------------------------------------|
A|-0--2-2--3--0--2-2----0--------------------------------------|
E|----3-3--------3-3--3----------------------------------------|
  
Play this fiff after any Verse

e|--------------------------------------------------------|
B|--------------------------------------------------------|
G|-7-bend-up-5---5----------------------------------------|
D|---------------7--7--7--5-------------------------------|
A|---------------------------7-6-5-0-3--------------------|
E|--------------------------------------------------------|
Добавлено: 06.04.2012
Вам также может быть интересно:
Другие материалы по этой песне:
  • Аккорды и текст

Страница создана 06.04.2012
http://primanota.ru/britny-fox/grilschool-chords.htm
Привет, Гость.
Предлагаем пройти революционный курс по гитаре.
Подарок от PrimaNota.Ru, забирай!