PrimaNota.ru - самый крупный в мире бесплатный архив песенных текстов, аккордов, табулатур и нот


Britney Spears - I was born to make you happy - аккорды и текст, видео

Регистрация Запомнить меня
Войти через:  Facebook Google Twitter Vk Yandex Mail.ru

Britney Spears - I was born to make you happy - аккорды и текст, видео

Печатать
Просмотров: 239
I was born to make you happy
Britney Spears
Начaлo пecни:	1-----0-0-0-0-0-0-0-0-0-0-0--0-0-0---------
2-----1-1-1-1-1-1-1-1-1-1-1--0-0-0---------
3-----2-2-2-2-2-2-2-2-0-0-0--1-1-1---------
4---2---------3----------------------------
5-0-------------------3--------------------
6----------------------------0-------------
 
1-----0-0-0-0-0-0-0-0-0-0-0--0-0-0---------
2-----1-1-1-1-1-1-1-1-1-1-1--0-0-0---------
3-----2-2-2-2-2-2-2-2-0-0-0--1-1-1---------
4---2---------3----------------------------
5-0-------------------3--------------------
6----------------------------0-------------

1----3-3-3-3--1-1-1-1--0-0-0--0-0-0-0------
2----1-1-1-1--3-3-3-3--1-1-1--0-0-0-1------
3----2-2-2-2--2-2-2-2--0-0-0--1-1-1-2------
4--2----------0----------------------------
5--0-------------------3------------0------
6-----------------------------0------------

1----3-3-3-3--1-1-1-1--0-0-0--0-0-0-0------
2----1-1-1-1--3-3-3-3--1-1-1--0-0-0-1------
3----2-2-2-2--2-2-2-2--0-0-0--1-1-1-2------
4--2----------0----------------------------
5--0-------------------3------------0------
6-----------------------------0------------
Добавлено: 22.10.2013
Другие материалы по этой песне:
  • Аккорды и текст

Страница создана 22.10.2013
http://primanota.ru/britney-spears/i-was-born-to-make-you-happy-chords.htm
Привет, Гость.
Предлагаем пройти революционный курс по гитаре.
Подарок от PrimaNota.Ru, забирай!