PrimaNota.ru - самый крупный в мире бесплатный архив песенных текстов, аккордов, табулатур и нот


British Sea Power - Lights Out For Darker Skies - текст песни, таба, видео

Регистрация Запомнить меня
Войти через:  Facebook Google Twitter Vk Yandex Mail.ru

British Sea Power - Lights Out For Darker Skies - текст песни, таба, видео

Печатать
Просмотров: 139
-------------------------------------------------------------------------------
                Lights Out For Darker Skies - British Sea Power
-------------------------------------------------------------------------------
Tabbed by: Bradders
Email: bradders_23@yahoo.co.uk

Tuning: Standard

e|---------------------------------------------------------|
B|---------------------------------------------------------|
G|-11/12-14~-----11/12-14~-----14\12-11~-----14\12-11~-----|
D|-11/12-14~-----11/12-14~-----14\12-11~-----14\12-11~-----|
A|--9/10-12~------9/10-12~-----12\10--9~-----12\10--9~-----|
E|---------------------------------------------------------|

e|-9--9----------------------------------9--9----------------------------------|
B|------11-11-9-9-11--------11-11-9-9-11------11-11-9-9-11--------11-11-9-9-11-|
G|-------------------11--11--------------------------------11--11--------------|
D|-----------------------------------------------------------------------------|
A|-----------------------------------------------------------------------------|
E|-----------------------------------------------------------------------------|

e|-----------------------------------------------------------------------------|
B|-9--9-----------11-9--9-----------11-9--9-----------11-9--9------------------|
G|------11-11-8-8---------11-11-8-8---------11-11-8-8---------11-11-8-8-10-11--|
D|-----------------------------------------------------------------------------|
A|-----------------------------------------------------------------------------|
E|-----------------------------------------------------------------------------|

e|-----------------------------------------------|
B|-9-9-------------------------------------------|
G|-----11-11-10-10-------10-10-------10-10-------|
D|-----------------11-11-------11-11-------11-11-|
A|-----------------------------------------------|
E|-----------------------------------------------|

e|-----------------------------------------------|
B|-----------------------------------------------|
G|-----------10-10-------------------10----10-11-|
D|-8-8-11-11-------11-11-------11-11----11-------|
A|-----------------------11-11-------------------|
E|-----------------------------------------------|

e|-----------------------------------------------|
B|-9-9-------------------------------------------|
G|-----11-11-10-10-------10-10-------10-10-------|
D|-----------------11-11-------11-11-------11-11-|
A|-----------------------------------------------|
E|-----------------------------------------------|

e|-----------------------------------------------|
B|-----------------------------------------------|
G|-----------10-10-------------11----10----10-11-|
D|-8-8-11-11-------11-11-------------------------|
A|-----------------------11-11-------------------|
E|-----------------------------------------------|

e|--------------------------------------------------|
B|-9-9----------------------------------------------|
G|-----11-11-10-10-------10-10-------10h11p10-------|
D|-----------------11-11-------11-11----------11-11-|
A|--------------------------------------------------|
E|--------------------------------------------------|

e|--------------------------------------------------|
B|--------------------------------------------------|
G|-----------10h11p10-------------------10----10-11-|
D|-8-8-11-11----------11-11-------11-11----11-------|
A|--------------------------11-11-------------------|
E|--------------------------------------------------|

e|-----------------------------------------------|
B|-9-9-------------------------------------------|
G|-----11-11-10-10-------10-10-------10-10-------|
D|-----------------11-11-------11-11-------11-11-|
A|-----------------------------------------------|
E|-----------------------------------------------|

e|--------------------------------------------------|
B|--------------------------------------------------|
G|-----------10-10-------------11----10----10-11-10~|
D|-8-8-11-11-------11-11----------------------------|
A|-----------------------11-11----------------------|
E|--------------------------------------------------|

| /  slide up
| \  slide down
| h  hammer-on
| p  pull-off
| ~  let ring

===============================================================================
Добавлено: 21.02.2012
Другие материалы по этой песне:
  • Аккорды и текст

Страница создана 21.02.2012
http://primanota.ru/british-sea-power/lights-out-for-darker-skies-chords.htm
Привет, Гость.
Предлагаем пройти революционный курс по гитаре.
Подарок от PrimaNota.Ru, забирай!