PrimaNota.ru - самый крупный в мире бесплатный архив песенных текстов, аккордов, табулатур и нот


Brings - Drie Jet Drop - таба, видео

Регистрация Запомнить меня
Войти через:  Facebook Google Twitter Vk Yandex Mail.ru

Brings - Drie Jet Drop - таба, видео

Печатать
Просмотров: 298
Drieß jet drop

Die Gitarren sind einen Halbton tiefer gestimmt!


Intro

   h             A       h               A        h            A
1:----------------0--0-0----------------------------------------0--0-0-|
2:---------------10-10-9---------------------------------------10-10-9-|
3:----------------9--9-9----------------------------------------9--9-9-|
4:-9-9-9~--9-9-9---------9-9-9~-9-----------------9-9-9~-9-9-9---------|
5:-9-9-9~--9-9-9---------9-9-9~-9-8/7----7b8b7----9-9-9~-9-9-9---------|
6:-7-7-7~--7-7-7---------7-7-7~-7-----10-------10-7-7-7~-7-7-7---------|

    D   h D  h D  h D  h A   h  h             A       h
1:---------------------------------------------0--0-0----------|
2:--------------------------------------------10-10-9----------|
3:---------------------------------------------9--9-9----------|
4:-/12~-9-12-9-12-9-12-9-7-7-9--9-9-9~--9-9-9---------9-9-9~-9-|
5:-/12~-9-12-9-12-9-12-9-7-7-9--9-9-9~--9-9-9---------9-9-9~-9-|
6:-/10~-7-10-7-10-7-10-7-5-5-7--7-7-7~--7-7-7---------7-7-7~-7-|

          A        h            A        D   h D  h D  h D  h A   h
1:-------------------------------0--0-0-----------------------------|
2:------------------------------10-10-9-----------------------------|
3:-------------------------------9--9-9-----------------------------|
4:-----------------9-9-9~-9-9-9---------/12~-9-12-9-12-9-12-9-7-7-9-|
5:-8/7----7b8b7----9-9-9~-9-9-9---------/12~-9-12-9-12-9-12-9-7-7-9-|
6:-----10-------10-7-7-7~-7-7-7---------/10~-7-10-7-10-7-10-7-5-5-7-|


1. Strophe

   h                            e
Et Wedder un die Konjunktur sin schlääch,
A                                   F#
willste Spaß han, bruchste richtich Cash.
    h             F#/B    A               E/G#
Wat nütz mir Sunnesching, wenn ich pleite bin?
   G                             F#
Et nöchste Bier, dat schnorr ich mir!

    h                        e
Ich ben die janze Kümerei he satt,
    A                                    F#
han ich kei Jeld för Sprit, fahr ich mim Rad
    h              F#/B      A                E/G#
von Lindenthal noh Sülz, ich weiß nit, wat du wills,
            G                       F#
wunns du in Berchheim, muss du allt fit sein.


 
Refrain

D                                 G
Drieß jet drop, do kannste widder laache,
A                                   F#
drieß jet drop, et jeiht uns widder jot.
h                  F#/B    A                    E/G#
Loor dich doch ens öm,  et künnt vill schlimmer sin,
              G                   F#
dröm loss uns laache un jet druss maache.

D                                 G
Drieß jet drop, do kannste widder laache,
A                                   F#
drieß jet drop, et jeiht uns widder jot.
h                  F#/B    A                    E/G#
Loor dich doch ens öm,  et künnt vill schlimmer sin,
              G                   F#     Riff 1
dröm loss uns laache un jet druss maache.


Riff 1

   h             A       h               A        h            A
1:----------------0--0-0----------------------------------------0--0-0-|
2:---------------10-10-9---------------------------------------10-10-9-|
3:----------------9--9-9----------------------------------------9--9-9-|
4:-9-9-9~--9-9-9---------9-9-9~-9-----------------9-9-9~-9-9-9---------|
5:-9-9-9~--9-9-9---------9-9-9~-9-8/7----7b8b7----9-9-9~-9-9-9---------|
6:-7-7-7~--7-7-7---------7-7-7~-7-----10-------10-7-7-7~-7-7-7---------|

    D   h D  h D  h D  h A   h
1:-----------------------------|
2:-----------------------------|
3:-----------------------------|
4:-/12~-9-12-9-12-9-12-9-7-7-9-|
5:-/12~-9-12-9-12-9-12-9-7-7-9-|
6:-/10~-7-10-7-10-7-10-7-5-5-7-|


2. Strophe

      h                          e
Vör'm Arbeitsamp, en riesenjroße Schlang,
    A                                   F#
ich stell mich schon ens prophylaktisch an.
    h                F#/B     A             E/G#
Mer weiß jo nit, wat kütt, in su ner dräuje Zick,
   G                           F#
se han allt Care-Paketche nohm Ihrefeld jeschick.


 
Refrain

D                                 G
Drieß jet drop, do kannste widder laache,
A                                   F#
drieß jet drop, et jeiht uns widder jot.
h                  F#/B    A                    E/G#
Loor dich doch ens öm,  et künnt vill schlimmer sin,
              G                   F#
dröm loss uns laache un jet druss maache.

D                                 G
Drieß jet drop, do kannste widder laache,
A                                   F#
drieß jet drop, et jeiht uns widder jot.
h                  F#/B    A                    E/G#
Loor dich doch ens öm,  et künnt vill schlimmer sin,
              G                   F#     Solo
dröm loss uns laache un jet druss maache.


Solo

    D                                    G
1:-/14-12-------------14-12-----------14b15-14-----------15-14-----------|
2:-------15-----------------15-----------------17--------------17--------|
3:----------14-----------------14-----------------16--------------16-----|
4:-------------16~----------------16~----------------17~-------------17~-|
5:-----------------------------------------------------------------------|
6:-----------------------------------------------------------------------|

    A                                  D
1:-b16-14-----------14b16-14-----------17b19-17-----------|
2:--------17-14--------------17-14--------------19--------|
3:--------------14~----------------14~-------------19-----|
4:----------------------------------------------------19~-|
5:--------------------------------------------------------|
6:--------------------------------------------------------|

   D/C#               h
1:-17b19-17---------------------------------------------------------|
2:----------19------------------------------------------------------|
3:-------------19-----11/12/14-11/12/14-11/12/14-11/12/14-11/12/14/-|
4:----------------19~-----------------------------------------------|
5:------------------------------------------------------------------|
6:------------------------------------------------------------------|

                                 e
1:-------------------------------------------------------------------|
2:-------------------------------------------------------------------|
3:-11/12/14/-11/12/14/-11/12/14/-12/14/16-12/14/16-12/14/16-12/14/16-|
4:-------------------------------------------------------------------|
5:-------------------------------------------------------------------|
6:-------------------------------------------------------------------|

 
                                       A
1:----------------------------------------------------------------|
2:-------------------------------------10/12/14-10/12/14-10/12/14-|
3:-12/14/16-12/14/16-12/14/16-12/14/16----------------------------|
4:----------------------------------------------------------------|
5:----------------------------------------------------------------|
6:----------------------------------------------------------------|

                                               F#
1:---------------------------------------------12b14-14-12b14-14-12b14-14-|
2:-10/12/14-10/12/14-10/12/14-10/12/14-10--10-----------------------------|
3:------------------------------------------------------------------------|
4:------------------------------------------------------------------------|
5:------------------------------------------------------------------------|
6:------------------------------------------------------------------------|

                        h
1:-12b14-14-12b14~14~-|
2:--------------------|
3:--------------------|
4:--------------------|
5:--------------------|
6:--------------------|


h              A
Drieß jet drop.
h              A
Drieß jet drop.
h              A
Drieß jet drop.
h              A
Drieß jet drop.

Riff 1         A
Drieß jet drop.
h              A
Drieß jet drop.
h              A
Drieß jet drop.
h              A
Drieß jet drop.

D G A F# h F#/B A E/G# G F#


Refrain

D                                 G
Drieß jet drop, do kannste widder laache,
A                                   F#
drieß jet drop, et jeiht uns widder jot.
h                  F#/B    A                    E/G#
Loor dich doch ens öm,  et künnt vill schlimmer sin,
              G                   F#
dröm loss uns laache un jet druss maache.
 
D                                 G
Drieß jet drop, do kannste widder laache,
A                                   F#
drieß jet drop, et jeiht uns widder jot.
h                  F#/B    A                    E/G#
Loor dich doch ens öm,  et künnt vill schlimmer sin,
              G                   F#
dröm loss uns laache un jet druss maache.

Outro          A
Drieß jet drop.
h              A
Drieß jet drop.
h              A
Drieß jet drop.
h     h   h
Drieß jet drop.


Outro

   h             A       h               A        h            A
1:----------------0--0-0----------------------------------------0--0-0-|
2:---------------10-10-9---------------------------------------10-10-9-|
3:----------------9--9-9----------------------------------------9--9-9-|
4:-9-9-9~--9-9-9---------9-9-9~-9-----------------9-9-9~-9-9-9---------|
5:-9-9-9~--9-9-9---------9-9-9~-9-8/7----7b8b7----9-9-9~-9-9-9---------|
6:-7-7-7~--7-7-7---------7-7-7~-7-----10-------10-7-7-7~-7-7-7---------|

   h  h  h
1:-----------|
2:-----------|
3:-----------|
4:-9--9--9/--|
5:-9--9--9/--|
6:-7--7--7/--|



         ------------------------------------------------------


                Mehr BRINGS-Tabs auf brings-tabs.de.vu!


         ------------------------------------------------------
Добавлено: 02.07.2012
Другие материалы по этой песне:
  • Аккорды и текст

Страница создана 02.07.2012
http://primanota.ru/brings/drie-jet-drop-chords.htm
Привет, Гость.
Предлагаем пройти революционный курс по гитаре.
Подарок от PrimaNota.Ru, забирай!