PrimaNota.ru - самый крупный в мире бесплатный архив песенных текстов, аккордов, табулатур и нот


Bring Me The Horizon - No Need For Introductions Ive Read About Girls Like You On The Back Of Toilet Doors - текст песни, таба, бас-таба, видео

Регистрация Запомнить меня
Войти через:  Facebook Google Twitter Vk Yandex Mail.ru

Bring Me The Horizon - No Need For Introductions Ive Read About Girls Like You On The Back Of Toilet Doors - текст песни, таба, бас-таба, видео

Печатать
Просмотров: 235
Pretty fast song, but pretty easy to play.
Couldn't figure out the harmonics very well, please correct me if I got them wrong :)

Edit: Apologies for not putting it in Drop G, I hadn't realised some of the rest 
of the album was in that, but now it makes sense.


Drop G Tuning

Starts at 0:16
A|-------------------------|
E|-------------------------|
C|--########---------------|
G|--########--\---------\--|
D|--########--\pickslide\--|
G|------------\---------\--|
   (Harmonics)

The accents seem to be on the 2nd, 4th, 6th etc pickstrokes here.
0:18
A|-----------------------------------------------------------|
E|-----------------------------------------------------------|
C|-----------------------------------------------------------|
G|--------------------------------------------------11-8-10--|
D|------------------6-------3-5-6-3-5---------------9--6-8---|
G|--0-0-0-0-0-0-0-0---0-0-0-----------0-0-0-0-0-0-0----------|
      >   >   >   > etc.

A|-----------------------------------------------------------|
E|-----------------------------------------------------------|
C|-----------------------------------------------------------|
G|--------------------------------------------------0--0--0--|
D|------------------6-------3-5-6-3-5---------------0--0--0--|
G|--0-0-0-0-0-0-0-0---0-0-0-----------0-0-0-0-0-0-0-0--0--0--|
                                                    .  .  .
0:26
A|-------------------------------------------|
E|-------------------------------------------|
C|-------------------------------------------|
G|-------------------------------------------|
D|--0000-0000-1111-1111-3333-3333-4444-4444--|
G|--0000-0000-1111-1111-3333-3333-4444-4444--|

A|------------------------------------------------------|
E|------------------------------------------------------|
C|------------------------------------------------------|
G|------------------------------------------------------|
D|--0000-0000-1111-1111-4444-4444-9999-9999-9999-9999-9-|
G|--0000-0000-1111-1111-4444-4444-9999-9999-9999-9999-9-|
                                                      .


0:41
A|-------------------------------------------------|
E|-------------------------------------------------|
C|-------------------------------------------------|
G|--2---2/3---3\1--0-0-0-0-2---2/3---1/4---0-0-0-0-|
D|--2---2/3---3\1--0-0-0-0-2---2/3---1/4---0-0-0-0-|
G|--2---2/3---3\1--0-0-0-0-2---2/3---1/4---0-0-0-0-|
                    . . . .                 . . . .

A|---------------------------------------------------------|
E|---------------------------------------------------------|
C|---------------------------------------------------------|
G|--2---2/3---3\1--0-0-0-0-0-0-0-0-2---2/3---1/4---0-0-0-0-|
D|--2---2/3---3\1--0-0-0-0-0-0-0-0-2---2/3---1/4---0-0-0-0-|
G|--2---2/3---3\1--0-0-0-0-0-0-0-0-2---2/3---1/4---0-0-0-0-|
                    . . . . . . . .                 . . . .           
Добавлено: 27.04.2012
Другие материалы по этой песне:
  • Аккорды и текст

Страница создана 27.04.2012
http://primanota.ru/bring-me-the-horizon/no-need-for-introductions-ive-read-about-girls-like-you-on-the-back-of-toilet-doors-chords.htm
Привет, Гость.
Предлагаем пройти революционный курс по гитаре.
Подарок от PrimaNota.Ru, забирай!