PrimaNota.ru - самый крупный в мире бесплатный архив песенных текстов, аккордов, табулатур и нот


Bring Me The Horizon - Dragon Slaying - таба, видео

Регистрация Запомнить меня
Войти через:  Facebook Google Twitter Vk Yandex Mail.ru

Bring Me The Horizon - Dragon Slaying - таба, видео

Печатать
Просмотров: 338
-------------------------------------------------------------------------------
                   Bring Me The Horizon - Dragon Slaying 
-------------------------------------------------------------------------------

Tuning: B F# B E G# C#

t - tremolo picking
[] - pinch harmonic
* - palm mute
h p - hammer on / pull off
\ - slide downwards

guitar 1 (top staff) - right speaker
guitar 2 (bottom staff) - left speaker  



|-------------------------------------------------------------------|
|-------------------------------------------------------------------|
|-------------------------------------------------------------------|
|-0-----------------0-----------------------------------------------|
|-0-----------------0-------------------8---7---4-------------------|
|-0-----------------0-----------------------------------------------|
|                                       t   t   t
|
|-------------------------------------------------------------------|
|-------------------------------------------------------------------|
|-------------------------------------------------------------------|
|-0-----------------0-----------------------------------------------|
|-0-----------------0-------------------8---7---4-------------------|
|-0-----------------0-----------------------------------------------|
                                        t   t   t



|-------------------------------------------------------------------|
|-------------------------------------------------------------------|
|-------------------------------------------------------------------|
|-------------------------------------------------------------------|
|----10--8--7--8--7--5--4--5--4-------------------------------------| 
|-0------------------------------8--7--8--7--5--3-------------------|
| t  t   t  t  t  t  t  t  t  t  t  t  t  t  t  t
|                                                                      x2
|-------------------------------------------------------------------|
|-------------------------------------------------------------------|
|-------------------------------------------------------------------|
|-------------------------------------------------------------------|
|----10--8--7--8--7--5--4--5--4-------------------------------------| 
|-0------------------------------8--7--8--7--5--3-------------------|
  t  t   t  t  t  t  t  t  t  t  t  t  t  t  t  t



|-------------------------------------------------------------------|
|-------------------------------------------------------------------|
|-------------------------------------------------------------------|
|-------------------------------------------------------------------| 
|------10--8--7--8--7--5--4--5--4-----------------------------------| 
|-0-0-----------------------------8--7--8--7--5--[8]----------------|
| * *
|                                                                      x2
|-------------------------------------------------------------------|
|-------------------------------------------------------------------|
|-------------------------------------------------------------------|
|-------------------------------------------------------------------| 
|------10--8--7--8--7--5--4--5--4-----------------------------------| 
|-0-0-----------------------------8--7--8--7--5--[8]----------------|
  * *



|-------------------------------------------------------------------|
|-------------------------------------------------------------------|
|-----10-13-[10]-----9-12-[9]-----[11]------------------------------|
|-------------------------------------------------------------------| 
|-------------------------------------------7-8-10-8-7-8-7----------| 
|-0-0------------0-0----------0-0------0-0--------------------------|
| * *            * *          * *      * * 
|                                                                      x4
|-------------------------------------------------------------------|
|-------------------------------------------------------------------|
|-----10-13-[10]-----9-12-[9]-----[11]------------------------------|
|-------------------------------------------------------------------| 
|-------------------------------------------7-8-10-8-7-8-7----------| 
|-0-0------------0-0----------0-0------0-0--------------------------|
  * *            * *          * *      * *




|-------------------------------------------------------------------|
|-------------------------------------------------------------------|
|-------------------------------------------------------------------|
|-------------------------------------------------------------------| 
|-----10--8--7--8--7--5--4--5--4------------------------------------| 
|-0-0----------------------------8--7--8--7--5--[8]-----------------|
| * *
|
|-------------------------------------------------------------------|
|-------------------------------------------------------------------|
|-------------------------------------------------------------------|
|-------------------------------------------------------------------| 
|-----10--8--7--8--7--5--4--5--4------------------------------------| 
|-0-0----------------------------8--7--8--7--5--[8]-----------------|
  * *



|-------------------------------------------------------------------|
|-------------------------------------------------------------------|
|-------------------------------------------------------------------|
|-------------------------------------------------------------------|
|----10--8--7--8--7--5--4--5--4-------------------------------------| 
|-0------------------------------8--7--8--7--5--3-------------------|
| t  t   t  t  t  t  t  t  t  t  t  t  t  t  t  t
|                                                                      
|-------------------------------------------------------------------|
|-------------------------------------------------------------------|
|-------------------------------------------------------------------|
|-------------------------------------------------------------------|
|----10--8--7--8--7--5--4--5--4-------------------------------------| 
|-0------------------------------8--7--8--7--5--3-------------------|




SOLO

|-------------------------------------------------------------------|
|-------------------------------------------------------------------|
|-------------------------------------------------------------------|
|--------------------------------12---12-14-12-14-15-14-15-17-------|
|--------------10-12-13-12-13-15------------------------------------|
|-12---12-14-15-----------------------------------------------------|
|
|
|-------------------------------------------------------------------|
|-------------------------------------------------------------------|
|-------------------------------------------------------------------|
|-------------------------------------------------------------------|
|-0------------------------------8-------------------------5--------|
|-0------------------------------8-------------------------5--------|




|-------------------------------------------------------------------|
|-------------------------------------------------------------------|
|-----15-14-15-17-15-14---------------------------------------------|
|--17-------------------17-15-17-14h15p14h15p14h15p14--12-----------|
|-------------------------------------------------------------------|
|-------------------------------------------------------------------|
|
|
|-------------------------------------------------------------------|
|-------------------------------------------------------------------|
|-------------------------------------------------------------------|
|--------------6---------------------------------------7------------|
|--------------4---------------------------------------5------------|
|-------------------------------------------------------------------|




|-------------------------------------------------------------------|
|-------------------------------------------15-----15---------------|
|----------------------------------15-14----------------------------|
|-12-12-12-12-11-12-14-12-14-15-14----------------------------------|
|-------------------------------------------------------------------|
|-------------------------------------------------------------------|
|
|
|-------------------------------------------------------------------|
|-------------------------------------------------------------------|
|-------------------------------------------------------------------|
|--------------------------------------------6------7--7-7-7-7--7---|
|----------------------------8---------5-----4------5--5-5-5-5--5---|
|----------------------------8---------5----------------------------|




|-------------------------------------------------------------------|
|-------18-------18-------18-------18-------18----------------------|
|-14-15----14-15----14-15----14-15----14-15----14---14-14-14-15-----|
|-------------------------------------------------------------------|
|-------------------------------------------------------------------|
|-------------------------------------------------------------------|
|
|
|-------------------------------------------------------------------|
|-------------------------------------------------------------------|
|-------------------------------------------------------------------|
|-7-7--7-7-7--------------------------------------------------------|
|-5-5--5-5-5---8--8-8-8-8--8-8-8--8-8-8-------5--5-5-5-5--5-5-5--5-5|
|--------------8--8-8-8-8--8-8-8--8-8-8-------5--5-5-5-5--5-5-5--5-5|




|-------------------------------------------------------------------|
|-------------------------------------------------------------------|
|-14----14----------------------------------------------------------|
|----17----17-15-17-15-14h15p14h15p14h15p14-12-0--12-14-15-17-15-14-|
|-------------------------------------------------------------------|
|-------------------------------------------------------------------|
|
|
|-------------------------------------------------------------------|
|-------------------------------------------------------------------|
|-------------------------------------------------------------------|
|---6--6-6-6-6--6-6-6--6-6-6----------------------------------------|
|-5-4--4-4-4-4--4-4-4--4-4-4--8--8-8-8-8--8-8-8--8-8-8--5--5-5-5-5--|
|-5---------------------------8--8-8-8-8--8-8-8--8-8-8--5--5-5-5-5--|




|-------------------------------------------------------------------|
|-------------18-17-15-17-15----15----------------------------------|
|----15-14-------------------17----17-15-17-15-14-------------------|
|-15----------------------------------------------------------------|
|-------------------------------------------------------------------|
|-------------------------------------------------------------------|
|
|
|-------------------------------------------------------------------|
|-------------------------------------------------------------------|
|-------------------------------------------------------------------|
|---------------7--7-7-7-7--7-7-7--7-7-7----------------------------|
|-5-5-5--5-5-5--5--5-5-5-5--5-5-5--5-5-5----------------------------|
|-5-5-5--5-5-5------------------------------------------------------|




|-------17-22-17-------20-18-17-18-17-15-17-15----15----------------|
|----18---------18-----------------------------18----18-17-18-17----|
|-19---------------19-----------------------------------------------|
|-------------------------------------------------------------------|
|-------------------------------------------------------------------|
|-------------------------------------------------------------------|
|
|
|-------------------------------------------------------------------|
|-------------------------------------------------------------------|
|-------------------------------------------------------------------|
|-------------------------------------------------------------------|
|----5--7--8-----------------10--8--7-------------------------------|
|-0-----------------------8-----------------------------------------|
  t  t  t  t              t  t   t  t



|-------------------------------------------------------------------|
|-15-17-15-14-15-14----14-------------------------------------------|
|-------------------15----15-14-15-14----14-------------------------|
|-------------------------------------17----17-15-17-15-14-12-14-15-|
|-------------------------------------------------------------------|
|-------------------------------------------------------------------|
|
|
|-------------------------------------------------------------------|
|--------------------------------------------[10]-------------------|
|-------------------------------------------------------------------|
|-------------------------------------------------------------------|
|-----5--7--8-------------------------10--12------------------------|
|--5-------------------------------11-------------------------------|
   t  t  t  t                      t  t   t  



|------------------17-22-17----------17-20-17----------17-22-17------|
|---------------18----------18----18----------18----18----------18---|
|-12-14-15---19----------------19----------------19----------------19|
|--------------------------------------------------------------------|
|--------------------------------------------------------------------|
|--------------------------------------------------------------------|
|
|
|-------------------------------------------------------------------|
|-------------------------------------------------------------------|
|-------------------------------------------------------------------|
|-------------------------------------------------------------------|
|----5--7--8--------------------------------------10--8--7----------|
|-0--------------------------------------------8--------------------|
  t  t  t  t                                   t  t   t  t



|----17-20-17----------17-22-17----------17-20-18-17-18-17----17----|
|-18----------18----18----------18----18-------------------20----20-|
|----------------19----------------19-------------------------------|
|-------------------------------------------------------------------|
|-------------------------------------------------------------------|
|-------------------------------------------------------------------|
|
|
|-------------------------------------------------------------------|
|-------------------------------------------------------------------|
|-------------------------------------------------------------------|
|-------------------------------------------------------------------|
|-------------------5--7--8----------------------------------10-----|
|----------------5----------------------------------------11--------|
                 t  t  t  t                               t   t
 


|-------------------------------------------------------------------|
|-18-20-18-17h18p17h18p17h18p17h18p17-15\---------------------------|
|-------------------------------------------------------------------|
|-------------------------------------------------------------------|
|-------------------------------------------------------------------|
|-------------------------------------------------------------------|
|
|
|-------------------------------------------------------------------|
|-------[10]--------------------------------------------------------|
|-------------------------------------------------------------------|
|-------------------------------------------------------------------|
|--12---------------------------------------------------------------|
|-------------------------------------------------------------------|
   t  



|-------------------------------------------------------------------|
|-------------------------------------------------------------------|
|-------------------------------------------------------------------|
|-------------------------------------------------------------------|
|-0-3-1-0-5-8--0-3-1-0-5-8--6-9--0-3-1-0-5-8--0-3-1-0-5-8--6-9--7-10|
|-0-3-1-0------0-3-1-0-----------0-3-1-0------0-3-1-0---------------|
| * * * *      * * * *           * * * *      * * * *
|                                                                    x2
|-------------------------------------------------------------------|
|-------------------------------------------------------------------|
|-------------------------------------------------------------------|
|-------------------------------------------------------------------|
|-0-3-1-0-5-8--0-3-1-0-5-8--6-9--0-3-1-0-5-8--0-3-1-0-5-8--6-9--7-10|
|-0-3-1-0------0-3-1-0-----------0-3-1-0------0-3-1-0---------------|
  * * * *      * * * *           * * * *      * * * *



|-------------------------------------------------------------------|
|-------------------------------------------------------------------|
|-------------------------------------------------------------------|
|---------3-6----------3-6--4-7----------3-6----------3-6--4-7--5-8-|
|-0-3-1-0------0-3-1-0-----------0-3-1-0------0-3-1-0---------------|
|-0-3-1-0------0-3-1-0-----------0-3-1-0------0-3-1-0---------------|
| * * * *      * * * *           * * * *      * * * *
|                                                                    x2
|-------------------------------------------------------------------|
|-------------------------------------------------------------------|
|-------------------------------------------------------------------|
|-------------------------------------------------------------------|
|-0-3-1-0-5-8--0-3-1-0-5-8--6-9--0-3-1-0-5-8--0-3-1-0-5-8--6-9--7-10|
|-0-3-1-0------0-3-1-0-----------0-3-1-0------0-3-1-0---------------|
  * * * *      * * * *           * * * *      * * * * 



|-------------------------------------------------------------------|
|-------------------------------------------------------------------|
|-------------------------------------------------------------------|
|--6-9--------------------------------------------------------------|
|-------0-3-1-0-----------------------------------------------------|
|-------0-3-1-0-----------------------------------------------------|
|       * * * *
|
|-------------------------------------------------------------------|
|-------------------------------------------------------------------|
|-------------------------------------------------------------------|
|-------------------------------------------------------------------|
|-8-11--0-3-1-0-----------------------------------------------------|
|-------0-3-1-0-----------------------------------------------------|
        * * * *


 
|--------------------------------------------------------------------|
|--------------------------------------------------------------------|
|--------------------------------------------------------------------|
|--------------------------------------------------------------------|
|-0-3-1-0--[5]--0-3-1-0--[5]--[6]--0-3-1-0--[5]--0-3-1-0--[5]-[6]-[7]|
|-0-3-1-0-------0-3-1-0------------0-3-1-0-------0-3-1-0-------------|
| * * * *       * * * *            * * * *       * * * * 
|                                                                     x3
|--------------------------------------------------------------------|
|--------------------------------------------------------------------|
|--------------------------------------------------------------------|
|--------------------------------------------------------------------|
|-0-3-1-0--[5]--0-3-1-0--[5]--[6]--0-3-1-0--[5]--0-3-1-0--[5]-[6]-[7]|
|-0-3-1-0-------0-3-1-0------------0-3-1-0-------0-3-1-0-------------|




|--------------------------------------------------------------------|
|--------------------------------------------------------------------|
|--------------------------------------------------------------------|
|------------------------[3]--[4]------------------------------------|
|-0-3-1-0--[5]--0-3-1-0------------0-3-1-0--[5]--0-3-1-0--[5]-[6]-[7]|
|-0-3-1-0-------0-3-1-0------------0-3-1-0-------0-3-1-0-------------|
| * * * *       * * * *            * * * *       * * * * 
|                                                                     
|--------------------------------------------------------------------|
|--------------------------------------------------------------------|
|--------------------------------------------------------------------|
|--------------------------------------------------------------------|
|-0-3-1-0--[5]--0-3-1-0--[5]--[6]--0-3-1-0--[5]--0-3-1-0--[5]-[6]-[7]|
|-0-3-1-0-------0-3-1-0------------0-3-1-0-------0-3-1-0-------------|
  * * * *       * * * *            * * * *       * * * *
Добавлено: 06.08.2013
Другие материалы по этой песне:
  • Аккорды и текст

Страница создана 06.08.2013
http://primanota.ru/bring-me-the-horizon/dragon-slaying-chords.htm
Привет, Гость.
Предлагаем пройти революционный курс по гитаре.
Подарок от PrimaNota.Ru, забирай!