PrimaNota.ru - самый крупный в мире бесплатный архив песенных текстов, аккордов, табулатур и нот


Bring Me The Horizon - Chasing Rainbows - таба, видео

Регистрация Запомнить меня
Войти через:  Facebook Google Twitter Vk Yandex Mail.ru

Bring Me The Horizon - Chasing Rainbows - таба, видео

Печатать
Просмотров: 514
Intro: Riffs

e|------------------------------------------------------------------|
B|------------------------------------------------------------------|
G|----------12121212\15151515\10101010------------------------------|
D|---8\5-X4---------------------------------------------------------|
A|------------------------------------------------------------------|
D|------------------------------------------------------------------|

e|------------------------------------------------------------------|
B|------------------------------------------------------------------|
G|----------12121212\15151515\10101010--13h14p13--------------------|
D|---8\5-X4---------------------------------------------------------|
A|------------------------------------------------------------------|
D|------------------------------------------------------------------|

Intro: Chords

e|----------------------------------|
B|----------------------------------|
G|----------------------------------|
D|---10----6----3-------------------|
A|---10X8--6X4--3X4-----------------|X3
D|---10----6----3-------------------|

Interlude: Chords

e|---------------------------------------------|
B|---------------------------------------------|
G|---------------------------------------------|
D|---10~-6~-3~--X4|--6----8----3~----3---------|
A|---10~-6~-3~--X4|--6X8--8X8--3~X3--3X3-------|
D|---10~-6~-3~--X4|--6----8----3~----3---------|

Refrain: Riffs

e|------------------------------------------------------------------|
B|------------------------------------------------------------------|
G|----------12121212\15151515\10101010------------------------------|
D|---8\5-X4---------------------------------------------------------|
A|------------------------------------------------------------------|
D|------------------------------------------------------------------|

e|------------------------------------------------------------------|
B|------------------------------------------------------------------|
G|----------12121212\15151515\10101010--13h14p13--------------------|
D|---8\5-X4---------------------------------------------------------|
A|------------------------------------------------------------------|
D|------------------------------------------------------------------|

e|------------------------------------------------------------------|
B|--11-13-16X3--11-13-16x5----8-11-13X3---6-8-4-3h4p3~--------------|X2
G|------------------------------------------------------------------|
D|------------------------------------------------------------------|
A|------------------------------------------------------------------|
D|------------------------------------------------------------------|

Refrain: Chords

e|----------------------------------|
B|----------------------------------|
G|----------------------------------|
D|---10----6----3-------------------|
A|---10X8--6X4--3X4-----------------|X4
D|---10----6----3-------------------|

Interlude: Chords

e|----------------|-----------------------|--------------------------|
B|----------------|-----------------------|--------------------------|
G|----------------|-----------------------|--------------------------|
D|---10~-6~-3~--X4|--6----8----3~----1~---|--6~--8~--3~--1~----------|
A|---10~-6~-3~--X4|--6X8--8X8--3~X3--1~X3-|--6~--8~--3~--1~----------|
D|---10~-6~-3~--X4|--6----8----3~----1~---|--6~--8~--3~--1~----------|

Refrain: Riffs

e|------------------------------------------------------------------|
B|------------------------------------------------------------------|
G|----------12121212\15151515\10101010------------------------------|
D|---8\5-X4---------------------------------------------------------|
A|------------------------------------------------------------------|
D|------------------------------------------------------------------|

e|------------------------------------------------------------------|
B|------------------------------------------------------------------|
G|----------12121212\15151515\10101010--13h14p13--------------------|
D|---8\5-X4---------------------------------------------------------|
A|------------------------------------------------------------------|
D|------------------------------------------------------------------|

e|------------------------------------------------------------------|
B|--11-13-16X3--11-13-16x5----8-11-13X3---6-8-4-3h4p3~--------------|X2
G|------------------------------------------------------------------|
D|------------------------------------------------------------------|
A|------------------------------------------------------------------|
D|------------------------------------------------------------------|

Refrain: Chords

e|---------------------|-----------------------|------------------------|
B|---------------------|-----------------------|------------------------|
G|---------------------|-----------------------|------------------------|
D|---10----6----3----x3|---10----6----3----1---|-0-----6-----5-----0----|
A|---10X8--6X4--3X4--x3|---10X8--6X4--3X8--1X8-|-0X12--6X12--5X12--0X24-|
D|---10----6----3----x3|---10----6----3----1---|-0-----6-----5-----0----|

Interlude 2: Riffs

e|------------------|
B|------------------|
G|--8-10-7----------|x4
D|------------------|
A|------------------|
D|------------------|

Refrain: Riffs

e|------------------------------------------------------------------|
B|------------------------------------------------------------------|
G|----------12121212\15151515\10101010------------------------------|
D|---8\5-X4---------------------------------------------------------|
A|------------------------------------------------------------------|
D|------------------------------------------------------------------|

e|------------------------------------------------------------------|
B|------------------------------------------------------------------|
G|----------12121212\15151515\10101010--13h14p13--------------------|
D|---8\5-X4---------------------------------------------------------|
A|------------------------------------------------------------------|
D|------------------------------------------------------------------|

e|------------------------------------------------------------------|
B|--11-13-16X3--11-13-16x5----8-11-13X3---6-8-4-3h4p3~--------------|X3
G|------------------------------------------------------------------|
D|------------------------------------------------------------------|
A|------------------------------------------------------------------|
D|------------------------------------------------------------------|

e|----------------------------------|
B|----------------------------------|
G|----------------------------------|
D|---10----6----3-------------------|
A|---10X8--6X4--3X4-----------------|X5
D|---10----6----3-------------------|
Добавлено: 26.04.2014
Другие материалы по этой песне:

Страница создана 26.04.2014
http://primanota.ru/bring-me-the-horizon/chasing-rainbows-chords.htm
Привет, Гость.
Предлагаем пройти революционный курс по гитаре.
Подарок от PrimaNota.Ru, забирай!