PrimaNota.ru - самый крупный в мире бесплатный архив песенных текстов, аккордов, табулатур и нот


Bring Me The Horizon - A Lot Like Vegas - текст песни, таба, бас-таба, видео

Регистрация Запомнить меня
Войти через:  Facebook Google Twitter Vk Yandex Mail.ru

Bring Me The Horizon - A Lot Like Vegas - текст песни, таба, бас-таба, видео

Печатать
Просмотров: 328
----------------------------------------------------------------------------
	       A Lot Like Vegas - Bring Me The Horizon
----------------------------------------------------------------------------




Gtr I (D A D G B E) - 'Lead'
Gtr II (D A D G B E) - 'Backing'





  Q=120
 4/4
  Gtr I                               Gtrs I, II
      PM    PM    PM    PM--------|       PM    PM    PM    PM--------|
                        |-3-| |-3-|                         |-3-| |-3-|
  S S S S S S S S S S E S S S S S S   S S S S S S S S S S E S S S S S S
|-----------------------------------|------------------------------------|
|-----------------------------------|------------------------------------|
|-----------------------------------|------------------------------------|
|-----------------------------------|------------------------------------|
|-8p5---4h7---8p5---4h7-0-0-0-0-0-0-|-8p5---4h7---8p5---4h7-0-0-0-0-0-0--|
|-----0-----0-----0-----0-0-0-0-0-0-|-----0-----0-----0-----0-0-0-0-0-0--|


                         PM    PM    PM    PM--------|
                                           |-3-| |-3-|
  Q  +S  S E Q  Q    S S S S S S S S S S E S S S S S S   Q  +S  S E  Q  Q
|------------------|-----------------------------------|-------------------|
|------------------|-----------------------------------|-------------------|
|-3--(3)-----7--6--|-----------------------------------|-3--(3)-----10--9--|
|-x--(x)-----x--x--|-----------------------------------|-x--(x)------x--x--|
|-1--(1)-----5--4--|-8p5---4h7---8p5---4h7-0-0-0-0-0-0-|-1--(1)------8--7--|
|------------------|-----0-----0-----0-----0-0-0-0-0-0-|-------------------|


      PM    PM    PM    PM--------|
                        |-3-| |-3-|
  S S S S S S S S S S E S S S S S S   Q  +S  S E Q  Q
|-----------------------------------|-------------------|
|-----------------------------------|-------------------|
|-----------------------------------|-3--(3)-----7--6---|
|-----------------------------------|-x--(x)-----x--x---|
|-8p5---4h7---8p5---4h7-0-0-0-0-0-0-|-1--(1)-----5--4---|
|-----0-----0-----0-----0-0-0-0-0-0-|-------------------|


      PM    PM    PM    PM--------|
                        |-3-| |-3-|
  S S S S S S S S S S E S S S S S S   Q  +S  S E  Q  Q    W
|-----------------------------------|-------------------|------|
|-----------------------------------|-------------------|------|
|-----------------------------------|-3--(3)-----10--9--|------|
|-----------------------------------|-x--(x)------x--x--|-0----|
|-8p5---4h7---8p5---4h7-0-0-0-0-0-0-|-1--(1)------8--7--|-0----|
|-----0-----0-----0-----0-0-0-0-0-0-|-------------------|-0----|


   W          W           H     Q   Q    W
|-----------|----------|---------------|------|
|-----------|----------|---------------|------|
|-----------|----------|---------------|------|
|-10--------|-7--------|-10----12--10--|-0----|
|--8--------|-5--------|--8----10---8--|-0----|
|--8--------|-5--------|--8----10---8--|-0----|


   W          W           H     Q   Q
|-----------|----------|---------------|
|-----------|----------|---------------|
|-----------|----------|---------------|
|-10--------|-7--------|-10----12--10--|
|--8--------|-5--------|--8----10---8--|
|--8--------|-5--------|--8----10---8--|


      PM    PM    PM    PM--------|       PM    PM    PM    PM--------|
                        |-3-| |-3-|                         |-3-| |-3-|
  S S S S S S S S S S E S S S S S S   S S S S S S S S S S E S S S S S S
|-----------------------------------|-----------------------------------|
|-----------------------------------|-----------------------------------|
|-----------------------------------|-----------------------------------|
|-----------------------------------|-----------------------------------|
|-8p5---4h7---8p5---4h7-0-0-0-0-0-0-|-8p5---4h7---8p5---4h7-0-0-0-0-0-0-|
|-----0-----0-----0-----0-0-0-0-0-0-|-----0-----0-----0-----0-0-0-0-0-0-|


      PM    PM    PM    PM--------|                            PM--------|
                        |-3-| |-3-|                            |-3-| |-3-|
  S S S S S S S S S S E S S S S S S   S S S S S  S S S S  S S  S S S S S S S
|-----------------------------------|--------------------------------------|
|-----------------------------------|--------------------------------------|
|-----------------------------------|---------7h10--------8h11-------------|
|-----------------------------------|-----6h9--------7h10------------------|
|-8p5---4h7---8p5---4h7-0-0-0-0-0-0-|-5h8---------6h9----------0-0-0-0-0-0-|
|-----0-----0-----0-----0-0-0-0-0-0-|--------------------------0-0-0-0-0-0-|


  Q=100
  PM-------------------------------------------------------------------|
  S S S S S S S S T T T T T T T T Q    S S S S S S S S T T T T T T T T Q
|------------------------------------|------------------------------------|
|------------------------------------|------------------------------------|
|------------------------------------|------------------------------------|
|------------------------------------|------------------------------------|
|-0-0-0-0-0-0-0-0-0-0-0-0-0-0-0-0-0--|-0-0-0-0-0-0-0-0-0-0-0-0-0-0-0-0-0--|
|-0-0-0-0-0-0-0-0-0-0-0-0-0-0-0-0-0--|-0-0-0-0-0-0-0-0-0-0-0-0-0-0-0-0-0--|


    PM--|                     PM------------------------------|
  E S S Q  S S S S S S S  S   S S S S S S S S T T T T T T T T Q
|---------------------------|------------------------------------|
|---------------------------|------------------------------------|
|---------------------------|------------------------------------|
|--------------6h9-----7h10-|------------------------------------|
|---0-0-0--5h8-----6h9------|-0-0-0-0-0-0-0-0-0-0-0-0-0-0-0-0-0--|
|---0-0-0-------------------|-0-0-0-0-0-0-0-0-0-0-0-0-0-0-0-0-0--|


    PM--|                     PM------------------------------|
  E S S Q  S S S S S S S  S   S S S S S S S S T T T T T T T T Q
|---------------------------|------------------------------------|
|---------------------------|------------------------------------|
|---------------------------|------------------------------------|
|--------------6h9-----7h10-|------------------------------------|
|---0-0-0--5h8-----6h9------|-0-0-0-0-0-0-0-0-0-0-0-0-0-0-0-0-0--|
|---0-0-0-------------------|-0-0-0-0-0-0-0-0-0-0-0-0-0-0-0-0-0--|


    PM--|
  E S S Q  S S S S S S S  S
|---------------------------|
|---------------------------|
|---------------------------|
|--------------6h9-----7h10-|
|---0-0-0--5h8-----6h9------|
|---0-0-0-------------------|


  PM------------------------------|      PM--|
  S S S S S S S S T T T T T T T T Q    E S S Q   Q  Q
|------------------------------------|-------------------|
|------------------------------------|-------------------|
|------------------------------------|----------11--8----|
|------------------------------------|-----------x--x----|
|-0-0-0-0-0-0-0-0-0-0-0-0-0-0-0-0-0--|---0-0-0---9--6----|
|-0-0-0-0-0-0-0-0-0-0-0-0-0-0-0-0-0--|---0-0-0-----------|


  Gtr I
                             |-----3-----|
   H.                        E    E      E
|---------------------------12---13-----12---|
|-15-----------------------------------------|
|--------------------------------------------|
|--------------------------------------------|
|--------------------------------------------|
|--------------------------------------------|
|
| Gtr II
|     PM--------------|   PM   PM          PM
|  S  S S S S S S S S S S S  S S    T T    S
|--------------------------------------------|
|--------------------------------------------|
|--------------------------------------------|
|--0-----------------------------------------|
|--0--------------------5----8------7-5------|
|--0--0-0-0-0-0-0-0-0-0---0----0-----------0-|


            |----3----|               |----3----|
   Q        E    E    E    E    S  S  E    E    E
|----------12---13---12------------------------------|
|-13-------------------------------------------------|
|-------------------------14---12-12-12---14---12----|
|----------------------------------------------------|
|----------------------------------------------------|
|----------------------------------------------------|
|
|    PM-----------------|    PM---|
|  S S S S  S S    S    S  S S  S  S  S S    S    S
|----------------------------------------------------|
|----------------------------------------------------|
|----------------------------------------------------|
|--8-----------------------5-------------------------|
|--8-----------------------5----------8-7---------5--|
|--8-8-8-8--8-8----8----8--5-5--5--5---------5-------|


                                |-----3-----|
   E    E    +H                 E    E      E
|------------------------------12---13-----12---|
|-----------------------------------------------|
|-----------------------------------------------|
|-15---12---(12)--------------------------------|
|-----------------------------------------------|
|-----------------------------------------------|
|
|    PM------------------|   PM   PM          PM
|  S S  S S   S  S S S S S S S  S S    T T    S
|-----------------------------------------------|
|-----------------------------------------------|
|-----------------------------------------------|
|--0--------------------------------------------|
|--0-----------------------5----8------7-5------|
|--0-0--0-0---0--0-0-0-0-0---0----0-----------0-|


            |----3----|              |----3----|
   Q        E    E    E    E    E    E    E    E
|----------12---13---12---17------------------------|
|-15------------------------------------------------|
|------------------------------12---12---14---12----|
|---------------------------------------------------|
|---------------------------------------------------|
|---------------------------------------------------|
|
|    PM-----------------|    PM---|
|  S S S S  S S    S    S  S S  S S  S S    S    S
|---------------------------------------------------|
|---------------------------------------------------|
|---------------------------------------------------|
|--8-----------------------5------------------------|
|--8-----------------------5---------8-7---------5--|
|--8-8-8-8--8-8----8----8--5-5--5-5---------5-------|


                                  |-----3-----|
   E    E    +Q         E    E    E    E      E
|-------------------------------------------------|
|-------------------------------------------------|
|-------------------------------------------------|
|-15---12---(12)-------15---12---12---15-----12---|
|-------------------------------------------------|
|-------------------------------------------------|
|
|    PM-------------------|    PM   PM          PM
|  S S  S S   S  S S S  S S  S S  S S    T T    S
|-------------------------------------------------|
|-------------------------------------------------|
|-------------------------------------------------|
|--0----------------------------------------------|
|--0-------------------------5----8------7-5------|
|--0-0--0-0---0--0-0-0--0-0----0----0-----------0-|


                             |----3----|
   H.                        E    E    E
|-------------------------------------------|
|-------------------------------------------|
|-12------------------------12---13---12----|
|-------------------------------------------|
|-------------------------------------------|
|-------------------------------------------|
|
|     PM----------|   PM--|
|  S  S S S S S S S S S S S  S S    S    S
|-------------------------------------------|
|-------------------------------------------|
|-------------------------------------------|
|--8----------------5-----------------------|
|--8----------------5--------8-7---------5--|
|--8--8-8-8-8-8-8-8-5-5-5-5---------5-------|


                                           |-3-| |-3-|  |--3--|  |--3--|
   Q        Q        +H                    E E E E E E  E  E  E  E  E  E
|----------------------------------------|---------------------------------|
|----------------------------------------|---------------------------------|
|----------------------------------------|-7-7-7-9-9-9-11-11-11-12-12-12---|
|-15-------12-------(12)-----------------|-x-x-x-x-x-x--x--x--x--x--x--x---|
|----------------------------------------|-5-5-5-7-7-7--9--9--9-10-10-10---|
|----------------------------------------|---------------------------------|
|
|    PM------------------|   PM  PM    PM
|                                          |-3-| |-3-|  |--3--|  |--3--|
|  S S S S  S S S S   S  S S S S S T T S   E E E E E E  E  E  E  E  E  E
|----------------------------------------|---------------------------------|
|----------------------------------------|---------------------------------|
|----------------------------------------|-7-7-7-9-9-9-11-11-11-12-12-12---|
|--0-------------------------------------|-x-x-x-x-x-x--x--x--x--x--x--x---|
|--0-----------------------5---8---7-5---|-5-5-5-7-7-7--9--9--9-10-10-10---|
|--0-0-0-0--0-0-0-0---0--0---0---0-----0-|----------------------------------


   |---3---|              |---3---|
   S  S    S  S  S  S  S  S  S    S  S  S  S  S  Q
|--------------------------------------------------------|
|-10-11---10----10-------10-11---10----10-------13-------|
|------------12----12-10------------12----12-10----------|
|--------------------------------------------------------|
|--------------------------------------------------------|
|--------------------------------------------------------|
|
|  S    S     S  S  S  S  S    S     S  S  S  S  S S S S
|--------------------------------------------------------|
|--------------------------------------------------------|
|--------------------------------------------------------|
|--8-------------------8--7----------5-------------------|
|--8---------------------------------5-------------8-7---|
|--8----8-----8--8--8----------8-----5--5--5--5--5-----5-|


  |-3-| |-3-|  |--3--|  |--3--|
  E E E E E E  E  E  E  E  E  E
|-------------------------------|
|-------------------------------|
|-7-7-7-9-9-9-11-11-11-12-12-12-|
|-x-x-x-x-x-x--x--x--x--x--x--x-|
|-5-5-5-7-7-7--9--9--9-10-10-10-|
|-------------------------------|
|
| |-3-| |-3-|  |--3--|  |--3--|
| E E E E E E  E  E  E  E  E  E
|-------------------------------|
|-------------------------------|
|-7-7-7-9-9-9-11-11-11-12-12-12-|
|-x-x-x-x-x-x--x--x--x--x--x--x-|
|-5-5-5-7-7-7--9--9--9-10-10-10-|
|-------------------------------|


   |---3---|              |---3---|
   S  S    S  S  S  S  S  S  S    S  S  S  S  S  Q
|--------------------------------------------------------|
|-13-15---13----13-------13-15---13----13-------17-------|
|------------15----15-14------------15----15-14----------|
|--------------------------------------------------------|
|--------------------------------------------------------|
|--------------------------------------------------------|
|
|  S    S     S  S  S  S  S    S     S  S  S  S  S S S S
|--------------------------------------------------------|
|--------------------------------------------------------|
|--------------------------------------------------------|
|--8-------------------8--7----------5-------------------|
|--8---------------------------------5-------------8-7---|
|--8----8-----8--8--8----------8-----5--5--5--5--5-----5-|


  |-3-| |-3-|  |--3--|  |--3--|
  E E E E E E  E  E  E  E  E  E
|-------------------------------|
|-------------------------------|
|-7-7-7-9-9-9-11-11-11-12-12-12-|
|-x-x-x-x-x-x--x--x--x--x--x--x-|
|-5-5-5-7-7-7--9--9--9-10-10-10-|
|-------------------------------|
|
| |-3-| |-3-|  |--3--|  |--3--|
| E E E E E E  E  E  E  E  E  E
|-------------------------------|
|-------------------------------|
|-7-7-7-9-9-9-11-11-11-12-12-12-|
|-x-x-x-x-x-x--x--x--x--x--x--x-|
|-5-5-5-7-7-7--9--9--9-10-10-10-|
|-------------------------------|


   |---3---|              |---3---|
   S  S    S  S  S  S  S  S  S    S  S  S  S  S  Q
|--------------------------------------------------------|
|-10-11---10----10-------10-11---10----10-------13-------|
|------------12----12-10------------12----12-10----------|
|--------------------------------------------------------|
|--------------------------------------------------------|
|--------------------------------------------------------|
|
|  S    S     S  S  S  S  S    S     S  S  S  S  S S S S
|--------------------------------------------------------|
|--------------------------------------------------------|
|--------------------------------------------------------|
|--8-------------------8--7----------5-------------------|
|--8---------------------------------5-------------8-7---|
|--8----8-----8--8--8----------8-----5--5--5--5--5-----5-|


  |-3-| |-3-|  |--3--|  |--3--|
  E E E E E E  E  E  E  E  E  E
|-------------------------------|
|-------------------------------|
|-7-7-7-9-9-9-11-11-11-12-12-12-|
|-x-x-x-x-x-x--x--x--x--x--x--x-|
|-5-5-5-7-7-7--9--9--9-10-10-10-|
|-------------------------------|
|
| |-3-| |-3-|  |--3--|  |--3--|
| E E E E E E  E  E  E  E  E  E
|-------------------------------|
|-------------------------------|
|-7-7-7-9-9-9-11-11-11-12-12-12-|
|-x-x-x-x-x-x--x--x--x--x--x--x-|
|-5-5-5-7-7-7--9--9--9-10-10-10-|
|-------------------------------|


   |---3---|              |---3---|
   S  S    S  S  S  S  S  S  S    S  S  S  S  S  Q
|--------------------------------------------------------|
|-13-15---13----13-------13-15---13----13-------17-------|
|------------15----15-14------------15----15-14----------|
|--------------------------------------------------------|
|--------------------------------------------------------|
|--------------------------------------------------------|
|
|  S    S     S  S  S  S  S    S     S  S  S  S  S S S S
|--------------------------------------------------------|
|--------------------------------------------------------|
|--------------------------------------------------------|
|--8-------------------8--7----------5-------------------|
|--8---------------------------------5-------------8-7---|
|--8----8-----8--8--8----------8-----5--5--5--5--5-----5-|


   |--3--|              |--3--|
   S  S  S  S  S  S  S  S  S  S  S  S  S  S  Q
|-------------------------------------------------|
|-10-11-10----10-------10-11-10----10-------13----|
|----------12----12-10----------12----12-10-------|
|-------------------------------------------------|
|-------------------------------------------------|
|-------------------------------------------------|
|
|  |--3--|              |--3--|
|  S  S  S  S  S  S  S  S  S  S  S  S  S  S  Q
|-------------------------------------------------|
|-10-11-10----10-------10-11-10----10-------13----|
|----------12----12-10----------12----12-10-------|
|-------------------------------------------------|
|-------------------------------------------------|
|-------------------------------------------------|


   |--3--|              |--3--|
   S  S  S  S  S  S  S  S  S  S  S  S  S  S  Q
|------------------------------------------------|
|-13-15-13----13-------17-18-17----17-------20\--|
|----------15----15-14----------19----19-17------|
|------------------------------------------------|
|------------------------------------------------|
|------------------------------------------------|
|
|  |--3--|              |--3--|
|  S  S  S  S  S  S  S  S  S  S  S  S  S  S  Q
|------------------------------------------------|
|-13-15-13----13-------17-18-17----17-------20\--|
|----------15----15-14----------19----19-17------|
|------------------------------------------------|
|------------------------------------------------|
|------------------------------------------------|


  PM------------------------------|
  S S S S S S S S T T T T T T T T Q
|--------------------------------------|
|--------------------------------------|
|--------------------------------------|
|--------------------------------------|
|-0-0-0-0-0-0-0-0-0-0-0-0-0-0-0-0-0----|
|-0-0-0-0-0-0-0-0-0-0-0-0-0-0-0-0-0----|
|
| PM------------------------------|
| S S S S S S S S T T T T T T T T Q
|--------------------------------------|
|--------------------------------------|
|--------------------------------------|
|--------------------------------------|
|-0-0-0-0-0-0-0-0-0-0-0-0-0-0-0-0-0----|
|-0-0-0-0-0-0-0-0-0-0-0-0-0-0-0-0-0----|


  Gtrs I, II
    PM--|                     PM------------------------------|
  E S S Q  S S S S S S S  S   S S S S S S S S T T T T T T T T Q
|---------------------------|------------------------------------|
|---------------------------|------------------------------------|
|---------------------------|------------------------------------|
|--------------6h9-----7h10-|------------------------------------|
|---0-0-0--5h8-----6h9------|-0-0-0-0-0-0-0-0-0-0-0-0-0-0-0-0-0--|
|---0-0-0-------------------|-0-0-0-0-0-0-0-0-0-0-0-0-0-0-0-0-0--|


    PM--|
  E S S Q  S S S S S S S  S
|---------------------------|
|---------------------------|
|---------------------------|
|--------------6h9-----7h10-|
|---0-0-0--5h8-----6h9------|
|---0-0-0-------------------|


  PM------------------------------|
  S S S S S S S S T T T T T T T T Q    +Q.   E H
|------------------------------------|--------------*|
|------------------------------------|--------------*|
|------------------------------------|--------------*|
|------------------------------------|--------------*|
|-0-0-0-0-0-0-0-0-0-0-0-0-0-0-0-0-0--|--------------*|
|-0-0-0-0-0-0-0-0-0-0-0-0-0-0-0-0-0--|-(0)----------*|




----------------------------------------------------------------------------


Duration Legend
---------------
W - whole; H - half; Q - quarter; E - 8th; S - 16th; T - 32nd; X - 64th; a - acciaccatura
+ - note tied to previous; . - note dotted; .. - note double dotted
Uncapitalized letters represent notes that are staccato (1/2 duration)
Irregular groupings are notated above the duration line
Duration letters will always appear directly above the note/fret number it represents the
duration for.  Duration letters with no fret number below them represent rests.  Multi-
bar rests are notated in the form Wxn, where n is the number of bars to rest for.  Low
melody durations appear below the staff

Tablature Legend
----------------
 h   - hammer-on
 p   - pull-off
 b   - bend
 pb  - pre-bend
 r   - bend release (if no number after the r, then release immediately)
 /\  - slide into or out of (from/to "nowhere")
 s   - legato slide
 S   - shift slide
 - natural harmonic
[n]  - artificial harmonic
n(n) - tapped harmonic
 ~   - vibrato
 tr  - trill
 T   - tap
 TP  - trem. picking
 PM  - palm muting
\n/  - tremolo bar dip; n = amount to dip
 \n  - tremolo bar down
 n/  - tremolo bar up
/n\  - tremolo bar inverted dip
 =   - hold bend; also acts as connecting device for hammers/pulls
 <> - volume swell (louder/softer)
 x   - on rhythm slash represents muted slash
 o   - on rhythm slash represents single note slash

Misc Legend
-----------
 |  - bar
||  - double bar
||o - repeat start
o|| - repeat end
*|  - double bar (ending)
 :  - bar (freetime)
 $  - Segno
 &  - Coda
Tempo markers -  = BPM(8/16=s8/s16), where s8 = swing 8ths, s16 = swing 16ths



----------------------------------------------------------------------------
Добавлено: 02.12.2013
Другие материалы по этой песне:
  • Аккорды и текст

Страница создана 09.07.2012
http://primanota.ru/bring-me-the-horizon/a-lot-like-vegas-chords.htm
Привет, Гость.
Предлагаем пройти революционный курс по гитаре.
Подарок от PrimaNota.Ru, забирай!