PrimaNota.ru - самый крупный в мире бесплатный архив песенных текстов, аккордов, табулатур и нот


Brigitte Bardot - Contact - бас-таба, видео

Регистрация Запомнить меня
Войти через:  Facebook Google Twitter Vk Yandex Mail.ru

Brigitte Bardot - Contact - бас-таба, видео

Печатать
Просмотров: 93
Авторы музыки: Serge Gainsbourg
Авторы текста: Serge Gainsbourg
|-------|--11------9-|--------|
|-------|-----9-11---|--------|
|--9----|------------|--9-----|
|-------|------------|--------|

|-------|--11------9-|--------|
|-------|-----9-11---|--------| ETC.
|--9----|------------|--9-----|
|-------|------------|--------|

This is basically all there is to it, a simple yet funky bass line. Just repeat this 
over and over throughout the song. Enjoy!
Добавлено: 08.12.2013
Вам также может быть интересно:
Другие материалы по этой песне:
  • Аккорды и текст

Страница создана 08.12.2013
http://primanota.ru/brigitte-bardot/contact-chords.htm
Привет, Гость.
Предлагаем пройти революционный курс по гитаре.
Подарок от PrimaNota.Ru, забирай!