PrimaNota.ru - самый крупный в мире бесплатный архив песенных текстов, аккордов, табулатур и нот


Brightwood - Sound The Alarm - таба, видео

Регистрация Запомнить меня
Войти через:  Facebook Google Twitter Vk Yandex Mail.ru

Brightwood - Sound The Alarm - таба, видео

Печатать
Просмотров: 18
Brightwood
Sound The Alarm
Elementals

E-----------------------------------------------------------------
B-----------------------------------------------------------------
G-----------------------------------------------------------------
D-****************************----*****************************---
A-5555000011111111555500001111-33355558888111113335555000011111333
D-5555000011111111555500001111-33355558888111113335555000011111333
Figure it out. Wake up. Find the key. Search for the answer now.
The castle came crashing down. A million bodies on the water. None survived.

E---------------------
B---------------------
G---------------------
D-------0------------0
A----0h1---1-0----0h1-
D-1-1----------3-3----

E-----------------------------------------------------------------
B-----------------------------------------------------------------
G-----------------------------------------------------------------
D-****************************----*****************************---
A-5555000011111111555500001111-33355558888111113335555000011111333
D-5555000011111111555500001111-33355558888111113335555000011111333
I'll tell you everything that I see. I see it coming on. I see a stranger. A thousand lovers.
I see a fire in the sky. The earth begins to shake. I look up. The moon is red.

E---------------------------------------------
B---------------------------------------------
G---------------------------------------------
D-------0------------0-----------0-----------0
A----0h1---1-0----0h1---1-----0h1---1-0---1---
D-1-1----------3-3---------1-1----------3-----
Brother, where have you gone? Am I the only one?

E------------------------------------------------------------------------------------------
B-------------3--3-3--3333-3-33------------------------------------------------------------
G------------------------------10--1010-1010--101010101010101010101010101010-10101010101010
D-7-7--7-7-7--1--1-1--1111-1-11-8---8-8--8-8---8-8-8-8-8-8-8-7-7-7-7-7-7-7-7--7-7-7-7-7-7-7
A-5-5--5-5-5--1--1-1--1111-1-11-8---8-8--8-8---8-8-8-8-8-8-8-8-8-8-8-8-8-8-8--8-8-8-8-8-8-8
D-5-5--5-5-5--1--1-1--1111-1-11-8---8-8--8-8---8-8-8-8-8-8-8-7-7-7-7-7-7-7-7--7-7-7-7-7-7-7
Be ready for me, my love! Like a thief in the night, I'll come. The shadow in the sun.
I will take you away. We will disappear into the night. This is our ever after.

E-----------------------------------------------------------------
B-----------------------------------------------------------------
G-----------------------------------------------------------------
D-****************************----*****************************---
A-5555000011111111555500001111-33355558888111113335555000011111333
D-5555000011111111555500001111-33355558888111113335555000011111333
The storm, it's not over. I can hear it.
The sound of a trumpet. I hear a voice like thunder.
There's a darkness falling. The dark is here.

E---------------------------------------------
B---------------------------------------------
G---------------------------------------------
D-------0------------0-----------0-----------0
A----0h1---1-0----0h1---1-----0h1---1-0---1---
D-1-1----------3-3---------1-1----------3-----
Brother, where have you gone? Am I the only one?

E------------------------------------------------------------------------------------------
B-------------3--3-3--3333-3-33------------------------------------------------------------
G------------------------------10--1010-1010--101010101010101010101010101010-10101010101010
D-7-7--7-7-7--1--1-1--1111-1-11-8---8-8--8-8---8-8-8-8-8-8-8-7-7-7-7-7-7-7-7--7-7-7-7-7-7-7
A-5-5--5-5-5--1--1-1--1111-1-11-8---8-8--8-8---8-8-8-8-8-8-8-8-8-8-8-8-8-8-8--8-8-8-8-8-8-8
D-5-5--5-5-5--1--1-1--1111-1-11-8---8-8--8-8---8-8-8-8-8-8-8-7-7-7-7-7-7-7-7--7-7-7-7-7-7-7
Be ready for me, my love! Like a thief in the night, I'll come. The shadow in the sun.
I will take you away. We will disappear into the night. This is our ever.

E--------------------------------------------------
B--------------------------------------------------
G----------------------------------------********/*
D-------0------------0------------0-----333333333/5
A----0h1---1-0----0h1---8\-----0h1---1h3-33333333/5
D-1-1----------3-3----------1-1----------33333333/5
Our ever after.

A second guitar plays this over that ^^^
E-------|------
B----11-|----10
G-14----|-14---
D-------|------
A-------|------
D-(24x)-|-(8x)-

E------------------------------------------------------------------------------
B-3--3-3--3333-3-33------------------------------------------------------------
G------------------10--1010-1010--101010101010101010101010101010-10101010101010
D-1--1-1--1111-1-11-8---8-8--8-8---8-8-8-8-8-8-8-7-7-7-7-7-7-7-7--7-7-7-7-7-7-7
A-1--1-1--1111-1-11-8---8-8--8-8---8-8-8-8-8-8-8-8-8-8-8-8-8-8-8--8-8-8-8-8-8-8
D-1--1-1--1111-1-11-8---8-8--8-8---8-8-8-8-8-8-8-7-7-7-7-7-7-7-7--7-7-7-7-7-7-7
Be ready my love. Like a thief in the night, I'll come. The shadow in the sun.

E------------------------------------------------------------------------------------------
B-------------3--3-3--3333-3-33------------------------------------------------------------
G------------------------------10--1010-1010--101010101010101010101010101010-10101010101010
D-7-7--7-7-7--1--1-1--1111-1-11-8---8-8--8-8---8-8-8-8-8-8-8-7-7-7-7-7-7-7-7--7-7-7-7-7-7-7
A-5-5--5-5-5--1--1-1--1111-1-11-8---8-8--8-8---8-8-8-8-8-8-8-8-8-8-8-8-8-8-8--8-8-8-8-8-8-8
D-5-5--5-5-5--1--1-1--1111-1-11-8---8-8--8-8---8-8-8-8-8-8-8-7-7-7-7-7-7-7-7--7-7-7-7-7-7-7
I will take you away. We will disapppear into the night. This is our ever after.

E-------------------------------------------------
B-------------------------------------------------
G-----------------------------------------*****---
D-------0-----3-------0------------0-----333333333
A----0h1---1h3-----0h1---8\-----0h1---1h3-33333333
D-1-1-----------1-1----------1-1----------33333333
Our ever after. Ooh.

A second guitar plays this over that ^^^
E-------|------
B----11-|----10
G-14----|-14---
D-------|------
A-------|------
D-(24x)-|-(8x)-


Questions?
Email at cory.roesch@yahoo.com
Добавлено: 13.03.2016
Другие материалы по этой песне:
  • Аккорды и текст

Страница создана 13.03.2016
http://primanota.ru/brightwood/sound-alarm-chords.htm
Привет, Гость.
Предлагаем пройти революционный курс по гитаре.
Подарок от PrimaNota.Ru, забирай!