PrimaNota.ru - самый крупный в мире бесплатный архив песенных текстов, аккордов, табулатур и нот


Brightwood - Sit Still - текст песни, таба, видео

Регистрация Запомнить меня
Войти через:  Facebook Google Twitter Vk Yandex Mail.ru

Brightwood - Sit Still - текст песни, таба, видео

Печатать
Просмотров: 36
Brightwood
Sit Still
Elementals

Drop D

Intro:
E-----------------------
B-----------------------
G-----------------------
D-----4br--0-----0--2---
A---0---------4--------4
D-0---------------------

Verse 1:
E----------------------------------------------------
B----------------------------------------------------
G------------------------------11-11-11-1111/999-9-99
D-9999-4444-77777777-9999-7777-----------------------
A-9999-5555-55555555-9999-5555--9--9--9--9-9/777-7-77
D-9999-0000-55555555-9999-5555--0--0--0--0-0-000-0-00
You can't sit still. I watched your movement from the corner.

E---------------------------------------------------------------------------
B---------------------------------------------------------------------------
G------------------------------11-11-11-1111/999-9-9912-12-12-12121111-7-7-7
D-9999-4444-77777777-9999-7777----------------------------------------------
A-9999-5555-55555555-9999-5555--9--9--9--9-9/777-7-7710-10-10-1010-9-9-5-5-5
D-9999-0000-55555555-9999-5555--0--0--0--0-0-000-0-00-0--0--0--0-0-0-0-0-0-0
Catch my eye. Imagining you here right by my side.

Chorus:
E-------------------------------------
B-------------------------------------
G-7--7-777/11-11-11117--7-777/9-9-9-99
D-0--0-000--0--0--0-00--0-000-0-0-0-00
A-------------------------------------
D-5--5-555/-9--9--9-90--0-000h7-7-7-77
The fire in your eyes is blazing and it burns right, right through me.

E-----------------------------------
B-----------------------------------
G-7--7-777/11-11-11116--6-9-9-991111
D-0--0-000--0--0--0-00--0-0-0-00-0-0
A-----------------------------------
D-5--5-555/-9--9--9-94--4-7-7-77/9-9
Little girl, you're so amazing. Oh.

E-------------------------------------
B-------------------------------------
G-7--7-777/11-11-11117--7-777/9-9-9-99
D-0--0-000--0--0--0-00--0-000-0-0-0-00
A-------------------------------------
D-5--5-555/-9--9--9-90--0-000h7-7-7-77
Don't you know you drive me crazy? And I'd love to get to know you.

E--------------------------
B--------------------------
G-7--7-777/11-11-11116--6-7
D-0--0-000--0--0--0-00--0-0
A--------------------------
D-5--5-555/-9--9--9-94--4-0
Here I am. So won't you take me and blow me away?

Pre-Verse:
E-----------------------
B-----------------------
G-----------------------
D-----4br--0-----0--2---
A---0---------4--------4
D-0---------------------

E------------------------------------------------------------------
B------------------------------------------------------------------
G--------------------------------------------11-11-11-1111/999-9-99
D-9-9--4-4--7-7-xxx7--7-7-777-7-7-79999-7777-----------------------
A-9-9--5-5--5-5-xxx5--5-5-555-7-7-79999-5555--9--9--9--9-9/777-7-77
D-9-9--0-0--5-5-xxx5--5-5-555-5-5-59999-5555--0--0--0--0-0-000-0-00

Verse 2:
E----------------------------------------------------
B----------------------------------------------------
G------------------------------11-11-11-1111/999-9-99
D-9999-4444-77777777-9999-7777-----------------------
A-9999-5555-55555555-9999-5555--9--9--9--9-9/777-7-77
D-9999-0000-55555555-9999-5555--0--0--0--0-0-000-0-00
You seem so close. If I could know your thoughts. If I

E-------------------------------------------
B-------------------------------------------
G-------------------------------------------
D-9-9--4-4--7-7-xxx7--7-7-777-7-7-79999-7777
A-9-9--5-5--5-5-xxx5--5-5-555-7-7-79999-5555
D-9-9--0-0--5-5-xxx5--5-5-555-5-5-59999-5555
Could read your mind. Some things are never

E----------------------------------------------
B----------------------------------------------
G-11-11-11-1111/999-9-9912-12-12-1212-7-7-7-7-7
D----------------------------------------------
A--9--9--9--9-9/777-7-7710-10-10-1010-5-5-5-5-5
D--0--0--0--0-0-000-0-00-0--0--0--0-0-0-0-0-0-0
Never meant to be defined.

Chorus 2:
E-------------------------------------
B-------------------------------------
G-7--7-777/11-11-11117--7-777/9-9-9-99
D-0--0-000--0--0--0-00--0-000-0-0-0-00
A-------------------------------------
D-5--5-555/-9--9--9-90--0-000h7-7-7-77
The fire in your eyes is blazing and it burns right through me.

E---------------------
B---------------------
G-7--7-777/11-11-11116
D-0--0-000--0--0--0-00
A---------------------
D-5--5-555/-9--9--9-94
Little girl, you're so...

E-------------------------------------
B-------------------------------------
G-7--7-777/11-11-11117--7-777/9-9-9-99
D-0--0-000--0--0--0-00--0-000-0-0-0-00
A-------------------------------------
D-5--5-555/-9--9--9-90--0-000h7-7-7-77
The fire in your eyes is blazing and it burns right, right through me.

E-----------------------------------
B-----------------------------------
G-7--7-777/11-11-11116--6-9-9-991111
D-0--0-000--0--0--0-00--0-0-0-00-0-0
A-----------------------------------
D-5--5-555/-9--9--9-94--4-7-7-77/9-9
Little girl, you're so amazing. Oh.

E-------------------------------------
B-------------------------------------
G-7--7-777/11-11-11117--7-777/9-9-9-99
D-0--0-000--0--0--0-00--0-000-0-0-0-00
A-------------------------------------
D-5--5-555/-9--9--9-90--0-000h7-7-7-77
Don't you know you drive me crazy? And I'd love to get to know you.

E--------------------------
B--------------------------
G-7--7-777/11-11-11116--6-7
D-0--0-000--0--0--0-00--0-0
A--------------------------
D-5--5-555/-9--9--9-94--4-0
Here I am. So won't you take me and blow me away?

E----------------------------------------------
B----7------------10-----------5----------2---3
G----------------------------------------------
D-------0-------------0-----------0------------
A----------------------------------------------
D-9--------0--12---------0--7--------0--4---5--
It's now or never. It's now or never.
Here I am. There you are. Wish upon a falling star.

E----------------------------------------
B----------------------------------------
G-11-11-111111/7-7-7-779--9-999/6-6-6/7-7
D--0--0--0-0-0-0-0-0-000--0-000-0-0-0-0-0
A----------------------------------------
D--9--9--9-9-9/0-0-0-007--7-777/4-4-4/5-5
The fire in your eyes is blazing and it burns right through me.

E----------------------------------
B----------------------------------
G-11-11-111111/7-7-7-779--9-99999-9
D--0--0--0-0-0-0-0-0-000--0-00000-0
A----------------------------------
D--9--9--9-9-9/0-0-0-007--7-77777-7
Little girl, you're so amazing.

E-------------------------------------
B-------------------------------------
G-7--7-777/11-11-11117--7-777/9-9-9-99
D-0--0-000--0--0--0-00--0-000-0-0-0-00
A-------------------------------------
D-5--5-555/-9--9--9-90--0-000h7-7-7-77
Don't you know you drive me crazy? And I'd love to get to know you.

E--------------------------
G--------------------------
G-7--7-777/11-11-11116--6-7
D-0--0-000--0--0--0-00--0-0
A--------------------------
D-5--5-555/-9--9--9-94--4-0
Here I am. So won't you take me and blow me away?


Questions?
Email at cory.roesch@yahoo.com
Добавлено: 13.03.2016
Другие материалы по этой песне:
  • Аккорды и текст

Страница создана 09.04.2012
http://primanota.ru/brightwood/sit-still-chords.htm
Привет, Гость.
Предлагаем пройти революционный курс по гитаре.
Подарок от PrimaNota.Ru, забирай!