PrimaNota.ru - самый крупный в мире бесплатный архив песенных текстов, аккордов, табулатур и нот


Brightwood - Marked And Tied - таба, видео

Регистрация Запомнить меня
Войти через:  Facebook Google Twitter Vk Yandex Mail.ru

Brightwood - Marked And Tied - таба, видео

Печатать
Просмотров: 61
Уроки эстрадного вокала в Санкт-Петербурге
Brightwood
Marked & Tied
Elementals


Verse:
E----------------------------------------------------------------
B-------5---------------5---------------3---------------3--------
G----------------------------------------------------------------
D---0-------0---0---0-------0---0---0-------0---0---0-------0---0
A-4-------4---4---4-------4---4---2---0---2---2---2---0---2---2--
E-----5---------------5------------------------------------------
Heavy eyes at the wheel again.
Took me back in time.
The sound of your voice, now just white noise.

E----------------------------------------------------------------
B-------5---------------5---7---3-------3---------------3--------
G----------------------------------------------------------------
D---0-------0---0---0---------------0-------0---0---0-------0---0
A-4-------4---4---4-----------0---2---0---2---2---2---0---2---2--
E-----5---------------5---7--------------------------------------
Oh...

Chorus:
E----------------------------------------------------------------
B-------0-------------------------------2---------------3--------
G-----------------------2----------------------------------------
D---0-------0---0---0-------0---0---0-------0---0---0-------0---0
A---------------------------------4---4---4---4---2---2---2---2--
E-3---3---3---3---2---2---2---2----------------------------------
Oh I tried, but I hate you tonight.

E----------------------------------------------------------------
B-------0-------------------------------2---------------2--------
G-----------------------2----------------------------------------
D---0-------0---0---0-------0---0---0-------0---0---0-------0---0
A---------------------------------0---0---0---0---0---0---0---0--
E-3---3---3---3---2---2---2---2----------------------------------
Apologies are made to please.

E----------------------------------------------------------------
B-------0-------------------------------2---------------3--------
G-----------------------2----------------------------------------
D---0-------0---0---0-------0---0---0-------0---0---0-------0---0
A---------------------------------4---4---4---4---2---2---2---2--
E-3---3---3---3---2---2---2---2----------------------------------
Marked and tied. You'll lose this fight.

E--------------------------------------------------
B-------0-------------------------------2----------
G-----------------------2--------------------------
D---0-------0---0---0-------0---0---0-------0---0--
A---------------------------------0---0---0---0---0
E-3---3---3---3---2---2---2---2--------------------
Tomorrow, I resolve to go.

Solo (1st part of verse backing):
E-----------------------------------------------
B-3/5---5-8-7-----------------5-----------------
G--------------7/4-----------------------7-6----
D---------------------------7----------7-----7-4
A-----------------------5/7--------5/7----------
E-----------------------------------------------

Verse 2:
E----------------------------------------------------------------
B-------5---------------5---------------3---------------3--------
G----------------------------------------------------------------
D---0-------0---0---0-------0---0---0-------0---0---0-------0---0
A-4-------4---4---4-------4---4---2---0---2---2---2---0---2---2--
E-----5---------------5------------------------------------------
Heavy chest every time I think it.
Forgiving you is easy.
I tried to hold on but I'm not that strong.

E----------------------------------------
B-------5---------------5---7---3-------3
G----------------------------------------
D---0-------0---0---0---------------0----
A-4-------4---4---4-----------0---2---0--
E-----5---------------5---7--------------
Oh...

Chorus 2:
E----------------------------------------------------------------
B-------0-------------------------------2---------------3--------
G-----------------------2----------------------------------------
D---0-------0---0---0-------0---0---0-------0---0---0-------0---0
A---------------------------------4---4---4---4---2---2---2---2--
E-3---3---3---3---2---2---2---2----------------------------------
Oh, I tried, but I hate you tonight.

E----------------------------------------------------------------
B-------0-------------------------------2---------------2--------
G-----------------------2----------------------------------------
D---0-------0---0---0-------0---0---0-------0---0---0-------0---0
A---------------------------------0---0---0---0---0---0---0---0--
E-3---3---3---3---2---2---2---2----------------------------------
Apologies are made to please.

E----------------------------------------------------------------
B-------0-------------------------------2---------------3--------
G-----------------------2----------------------------------------
D---0-------0---0---0-------0---0---0-------0---0---0-------0---0
A---------------------------------4---4---4---4---2---2---2---2--
E-3---3---3---3---2---2---2---2----------------------------------
Marked and tied. You'll lose this fight.

E----------------------------------------------------------------
B-------0-------------------------------2---------------2--------
G-----------------------2----------------------------------------
D---0-------0---0---0-------0---0---0-------0---0---0-------0---0
A---------------------------------0---0---0---0---0---0---0---0--
E-3---3---3---3---2---2---2---2----------------------------------
Tomorrow I resolve. Yeah.

E----------------------------------------------------------------
B-------0-------------------------------2---------------3--------
G-----------------------2----------------------------------------
D---0-------0---0---0-------0---0---0-------0---0---0-------0---0
A---------------------------------4---4---4---4---2---2---2---2--
E-3---3---3---3---2---2---2---2----------------------------------
Oh, I tried to feel you tonight.

E----------------------------------------------------------------
B-------0-------------------------------2---------------2--------
G-----------------------2----------------------------------------
D---0-------0---0---0-------0---0---0-------0---0---0-------0---0
A---------------------------------0---0---0---0---0---0---0---0--
E-3---3---3---3---2---2---2---2----------------------------------
To find a reason to believe. Yeah.

E----------------------------------------------------------------
B-------0-------------------------------2---------------3--------
G-----------------------2----------------------------------------
D---0-------0---0---0-------0---0---0-------0---0---0-------0---0
A---------------------------------4---4---4---4---2---2---2---2--
E-3---3---3---3---2---2---2---2----------------------------------
Marked and tied. Worth the fight.

E--------------------------------------------------
B-------0-------------------------------2---------3
G-----------------------2--------------------------
D---0-------0---0---0-------0---0---0-------0---0--
A---------------------------------0---0---0---0----
E-3---3---3---3---2---2---2---2--------------------
Tomorrow I resolve to hope.

E-------------------------------
B---7----2----3------7----2-----
G----------------------------2/4
D-------------------------------
A-5----0----2------5----0-------
E-------------------------------
Hold me tonight. We were not meant to be alone.


Questions?
Email at cory.roesch@yahoo.com
Добавлено: 13.03.2016
Вам также может быть интересно:
Другие материалы по этой песне:
  • Аккорды и текст

Страница создана 13.03.2016
http://primanota.ru/brightwood/marked-and-tied-chords.htm
Привет, Гость.
Предлагаем пройти революционный курс по гитаре.
Подарок от PrimaNota.Ru, забирай!