PrimaNota.ru - самый крупный в мире бесплатный архив песенных текстов, аккордов, табулатур и нот


Brightwood - In Memory - текст песни, таба, видео

Регистрация Запомнить меня
Войти через:  Facebook Google Twitter Vk Yandex Mail.ru

Brightwood - In Memory - текст песни, таба, видео

Печатать
Просмотров: 141
Intro:
e|-----000-----000-----000-----000-----000-----000-----000--|
B|-----000-----000-----000-----000-----000-----000-----000--|
G|-----xxx-----xxx--22-222--44-444-----xxx-----xxx--22-222--|
D|--44-444--66-666--22-222--44-444--44-444--66-666--22-222--|
A|--44-444--66-666--00-000--22-222--44-444--66-666--00-000--|
E|--22-222--44-444------------------22-222--44-444----------|

e|-----000-----000-----000-----000-----000-----000-----000--0--|
B|-----000-----000-----000-----000-----000-----000-----000--0--|
G|--66-666-----xxx-----xxx--22-222--44-444-----xxx-----xxx--2--|
D|--66-666--44-444--66-666--22-222--44-444--44-444--66-666--2--|
A|--44-444--44-444--66-666--00-000--22-222--44-444--66-666--0--|
E|----------22-222--44-444------------------22-222--44-444-----|

Verse:
You say...
e|------000------000-----000-----000--|
B|------000------000-----000-----000--|
G|------xxx------xxx-----xxx-----xxx--|
D|--4---444--4---444--44-444--22-222--|  -}
A|--4---444--4---444--44-444--22-222--|   |
E|--0h2-222--0h2-222--22-222--00-000--|   |
                                          |
It feels...                               |   4x
e|------000-----000-----000-----000--|    |
B|------000-----000-----000-----000--|    |
G|------xxx--22-222-----xxx-----xxx--|    |
D|--4---444--22-222--22-222--22-222--|   -}
A|--4---444--00-000--22-222--22-222--|
E|--0h2-222----------00-000--00-000--|

Fourth time end on this.
e|--0--|
B|--0--|
G|--x--|
D|--2--|
A|--2--|
E|--0--|

Chorus:
This time...
e|----000----000----000----000----000----000----000----000--|
B|----000----000----000----000----000----000----000----000--|
G|----xxx--2-222--2-222----xxx--2-222----xxx--2-222----xxx--|
D|--4-444--2-222--2-222--2-222--2-222--2-222--2-222--6-666--| 2x
A|--4-444--0-000--0-000--2-222--0-000--2-222--0-000--6-666--|
E|--2-222----------------0-000---------0-000---------4-444--|

Second time end on this.
e|--0--|
B|--0--|
G|--x--|
D|--6--|
A|--6--|
E|--4--|

Between the chorus and the verse one guitar does this.
e|------------------------------------|
B|--------------------------------9~--|
G|------9~-6h7p6h7p6h7p6h7p6h7p6------|
D|--6b~-------------------------------|
A|------------------------------------|
E|------------------------------------|

Other guitar does the verse three times.

Third time end on this.
e|--0--|
B|--0--|
G|--x--|
D|--2--|
A|--2--|
E|--0--|
Then there's the piano part.

Sometime towards the end of the "In your hands..." part the guitar does this.
e|------------------------|
B|------------------------|
G|---------222222---------|
D|--444444-222222-222222--| Towards the chorus the palm mute lets off.
A|--444444-000000-222222--|
E|--222222--------000000--|
    ...... ...... ......

Chorus 2x.
During the chorus the other guitar does this.
e|----------------------------------------------9---------|
B|--9-10-----10-9---------9-10---------------12---10------|
G|-------9-------9-------------9--9h11-9-------------13/--|
D|-------------------7-6b-----------------11--------------|
A|--------------------------------------------------------|
E|--------------------------------------------------------|

e|------------------------9------------------|
B|------10-10-9--------12---9------------9b--|
G|--9-9-----------9-9---------9----9-11------|
D|------------------------------11-----------|
A|-------------------------------------------|
E|-------------------------------------------|

Repeat the last 4 chords of the chorus 3x.
Afer that
e|------------------|
B|------------------|
G|------------------|
D|--4-44--222-4~----|
A|--4-44--222-4~----|
E|--2-22--000-0h2~--|

Bridge:
And I'll wait...
e|--0--0--0--0--|
B|--0--0--0--0--|
G|--2--x--x--x--|
D|--2--4--2--6--| You can figure out the strumming.
A|--0--4--2--6--|
E|-----2--0--4--|

And I've gotten lazy, so maybe I'll do a seperate tab for the solo part.
Or you could figure it out yourselves.

After the bridge it's this.
e|--0--0--0--|
B|--0--0--0--|
G|--2--x--2--|
D|--2--4--2--|
A|--0--4--0--|
E|-----2-----|

Then the chorus a couple more times.
And that's it.

questions/comments/corrections email me at heyskatboarder@aol.com




Добавлено: 05.04.2012
Другие материалы по этой песне:
  • Аккорды и текст

Страница создана 19.03.2012
http://primanota.ru/brightwood/in-memory-chords.htm
Привет, Гость.
Предлагаем пройти революционный курс по гитаре.
Подарок от PrimaNota.Ru, забирай!