PrimaNota.ru - самый крупный в мире бесплатный архив песенных текстов, аккордов, табулатур и нот


Brightwood - Dreamer To A Dream - таба, видео

Регистрация Запомнить меня
Войти через:  Facebook Google Twitter Vk Yandex Mail.ru

Brightwood - Dreamer To A Dream - таба, видео

Печатать
Просмотров: 27
Brightwood
Dreamer To A Dream (Acoustic)
Elementals

Verse:
E------------------------------------------------|
B------------------------------------------------|
G-------0---------0------------------------------|
D-----7---------7---------0------0----7*--7*--7*-|
A---9---------9---------5------9-----------------|
D-0---------9---------5------9------5---5---5----|
I've never been one for chase, but for you I caved.

(I've been called a dreamer desperate for sleep.)

E---------------------------------------|
B---------------------------------------|
G-------0---------0---------------------|
D-----7---------7---------0------0------|
A---9---------9---------5------9--------|
D-0---------9---------5------9------4h5-|
Memories that paint your face with shades of red and laughter.

(You have been that dream, the kind I shut my eyes to keep.)

Chorus:
E-----------------------------------------------------------------|
B-----------------------------------------------------------------|
G-----------------------------------------------------------------|
D-----0-------0-------0-----0---------0-------0-------0-----0-----|
A---0---0---0---0---0-----0---0-----0---0---0---0---0-----0---0---|
D-4-------5-------9-----7-------0-4-------5-------9-----7-------0-|
I'm in love again in the worst kind of way. Oh my...
E-----------------------------------------------------------|
B-----------------------------------------------------------|
G-----------------------------------------------------------|
D-----0-----0---------0-----0---------0-----0----------0----|
A---0-----0---0-----0-----0---0-----0-----0---0------0------|
D-4-----5-------0-9-----7-------0-4-----5-------0-12-----11-|
Heart is racing. My voice is shaking at the thought of you.


Verse 2:
E------------------------------------------------|
B------------------------------------------------|
G-------0---------0------------------------------|
D-----7---------7---------0------0----7*--7*--7*-|
A---9---------9---------5------9-----------------|
D-0---------9---------5------9------5---5---5----|
I didn't ask for this. I did not want it.

(I've been called a dreamer desperate for sleep.)

E---------------------------------------|
B---------------------------------------|
G-------0---------0---------------------|
D-----7---------7---------0------0------|
A---9---------9---------5------9--------|
D-0---------9---------5------9------4h5-|
What do you suggest between head and heart when feeling is the strongest?

(You have been that dream. The kind that takes me in too deep.)

E-------------------palm muted---------------------|
B--------------------------------------------------|
G--------------------------------------------------|
D-444555551212121111111111444555551212121111111111-|
A-55555555-9-9-9-7-7-7-7-755555555-9-9-9-7-7-7-7-7-|
D-44455555-9-9-9-7-7-7-7-744455555-9-9-9-7-7-7-7-7-|


I'm in love again in the worst kind of way. Oh my...
Heart is racing. My voice is shaking at thought of you.

E--
B--
G--
D-4
A-5
D-0
You've always been the one. I never had the nerve...
To say it. You're all I dreamed.

E------------------------------------------------|
B------------------------------------------------|
G-------0---------0------------------------------|
D-----7---------7---------0------0----7*--7*--7*-|
A---9---------9---------5------9-----------------|
D-0---------9---------5------9------5---5---5----|
The moment I'm feeling courageous you always leave me tongue tied.

E---------------------------------------|
B---------------------------------------|
G-------0---------0---------------------|
D-----7---------7---------0------0------|
A---9---------9---------5------9--------|
D-0---------9---------5------9------4h5-|
And now it's too late because you're far gone. Wish I could say I tried.

E--------------------------------------------------|
B--------------------------------------------------|
G--------------------------------------------------|
D-444555551212121111111111444555551212121111111111-|
A-55555555-9-9-9-7-7-7-7-755555555-9-9-9-7-7-7-7-7-|
D-44455555-9-9-9-7-7-7-7-744455555-9-9-9-7-7-7-7-7-|
And I'm in love again in the worst kind of way. Oh my...
Heart is racing. My voice is shaking at thought of you. Oh.
I'm in love again in the worst kind of way. Oh my...
Heart is racing. My voice is shaking at thought of you. Oh.


E--
B--
G--
D-4
A-5
D-0

Questions?
Email at cory.roesch@yahoo.com
Добавлено: 13.03.2016
Другие материалы по этой песне:
  • Аккорды и текст

Страница создана 13.03.2016
http://primanota.ru/brightwood/dreamer-to-a-dream-chords.htm
Привет, Гость.
Предлагаем пройти революционный курс по гитаре.
Подарок от PrimaNota.Ru, забирай!