PrimaNota.ru - самый крупный в мире бесплатный архив песенных текстов, аккордов, табулатур и нот


Brightwood - Conversations With Stars - таба, видео

Регистрация Запомнить меня
Войти через:  Facebook Google Twitter Vk Yandex Mail.ru

Brightwood - Conversations With Stars - таба, видео

Печатать
Просмотров: 22
Brightwood
Conversations With Stars
Elementals

E-----------------------------------------------------------|
B------1--------------1------1-------1----------1------1----|
G---------0---0-----0----0-------2------2---0------0------0-|
D----2------2-----0--------0-------2------2---3------0------|
A-3----------------------------0----------------------------|
E---------------3-------------------------------------------|
My love, I'll wait for you. Will you wait for me?

(My love, I'll wait for you. Will you come for me?)

E---------------------------------------------|
B-----------------------1------------1--------|
G---0---0---0---0---0--------0---0------0---0-|
D-----2-------0-------3----3-------3------3---|
A-3-------------------------------------------|
E---------3-------1------------1--------------|
Mmm...

(Mmm...)

E------------------------------------------------------------|
B-------1--------------1--------------1----------1------1----|
G-----0----0---0---0------0-------2------2---0------0------0-|
D---2--------2-------0------0-------2------2---3------0------|
A-3---------------------------0-0----------------------------|
E----------------3-------------------------------------------|
For now I'll make believe I'm a knight riding to your castle.

(I know a place for us where the silvery moon meets the meadow.)

E-------------------------------------------------------------------------|
B----------------------1----------------------------1------------1--------|
G------0---0---0---0--------0---0---0---0---0---0--------0---0------0---0-|
D----2-------0-------3----3-------0-------0-------3----3-------3------3---|
A-3---------------------------0-------2-----------------------------------|
E--------3-------1----------------------------1------------1--------------|
Mmm... I'm almost there.

(Mmm... You'll find me there.)

E-----------------|-----------------|-----------------|-----------------|
B-------1-------1-|-------0-------0-|-------1-------1-|-------0-------0-|
G---0-------0-----|---0-------0-----|---0-------0-----|---0-------0-----|
D-----2-------2---|-----0-------0---|-----3-------3---|-----0-------0---|
A-3-------3-------|-----------------|-----------------|-----------------|
E-----------------|-3-------3-------|-1-------1-------|-3-------3-------|
I went to a hillside, laid down with the stars, heard a crickets love song but nothing of you.
Laid awake countless nights thinking what you might be like. Out of an ocean of faces, 
have I met your eyes?

(I ran through the meadow, the moon in my hair, in my heart a melody. Morning dew came.
I spent my life dreaming what you might be like. When I woke up, I met your eyes.

Questions?
Email at cory.roesch@yahoo.com
Добавлено: 13.03.2016
Другие материалы по этой песне:
  • Аккорды и текст

Страница создана 13.03.2016
http://primanota.ru/brightwood/conversations-with-stars-chords.htm
Привет, Гость.
Предлагаем пройти революционный курс по гитаре.
Подарок от PrimaNota.Ru, забирай!