PrimaNota.ru - самый крупный в мире бесплатный архив песенных текстов, аккордов, табулатур и нот


Bright Eyes - Napoleons Hat Chords - аккорды и текст, таба, видео

Регистрация Запомнить меня
Войти через:  Facebook Google Twitter Vk Yandex Mail.ru

Bright Eyes - Napoleons Hat Chords - аккорды и текст, таба, видео

Печатать
Просмотров: 104
Уроки эстрадного вокала в Санкт-Петербурге
Napoleons Hat Chords
Bright Eyes
-------------------------------------------------------------------------------
                            Napoleon's Hat - Bright eyes
-------------------------------------------------------------------------------
Tabbed by: Yoshima
Email:derby@fsmail.net

Tuning: standard
Capo: 4th

With a capo on the 4th fret use these chords....



      F#m11      E          Dadd2         A          Dm         F#m
e|-----0---------0-----------0------------0-----------1----------2----|
B|-----0---------0-----------3------------2-----------3----------2----|
G|-----2---------1-----------2------------2-----------2----------2----|
D|-----4---------2-----------0------------2-----------0----------4----|
A|-----0---------2-----------0------------0-----------0----------4----|
E|-----2---------0-----------2------------0----------------------2----|

(Not sure if the chord names are right)

>>>>>>>>>>>>>>>>>>>>>>>>>>>>>>>>>>>>>>>>>>>>>>>>>>>>>>>>>>>>>>>>>>>>>>>

Intro:...  F#m11...E...F#m11...E


F#m11....................................................E
The barons of industry put inspiration on Hitler
Добавлено: 19.02.2014
Другие материалы по этой песне:
  • Аккорды и текст

Страница создана 09.11.2013
http://primanota.ru/bright-eyes/napoleons-hat-chords-chords.htm
Привет, Гость.
Предлагаем пройти революционный курс по гитаре.
Подарок от PrimaNota.Ru, забирай!