PrimaNota.ru - самый крупный в мире бесплатный архив песенных текстов, аккордов, табулатур и нот


Bright Eyes - Its Cool We Can Still Be Friends - аккорды и текст, таба, видео

Регистрация Запомнить меня
Войти через:  Facebook Google Twitter Vk Yandex Mail.ru

Bright Eyes - Its Cool We Can Still Be Friends - аккорды и текст, таба, видео

Печатать
Просмотров: 194
Its Cool We Can Still Be Friends
Bright Eyes
Hola, this is my first post. No one has posted a proper version of this song. I
think that's a testament to the fact that Bright Eyes fans are terrible guitarists. 

Chords Used:

      C      F7M        GaddD     Am     Am/Bb
E|----0--------0----------3--------0-------0-------
B|----1--------1----------3--------1-------1-------
G|----0--------2----------0--------2-------3-------
D|----2--------3----------0--------2-------2-------
A|----3--------3----------2--------0------(1)------
E|------------------------3------------------------


Intro: (I'm not detailing the rhythm because it's fairly simple)
     F7M            C          
E|----0-0-0---------0-0-0-0--
B|----1-1-1---------1-1-1-1--
G|----2-2-2---------0-0-0-0--   X 2
D|----3-3-3-3-2-0---2-2-2-2--   
A|----3-3-3---------3-3-3-3--
E|---------------------------

Verse:
               F7M                           C
Yeah you still kiss me, but it's just on the cheek. 
               F7M                           C
Yeah you still kiss me, but it's just on the cheek. 
               F7M                           C
Yeah you still kiss me sometimes, but it's just on the cheek.
         GaddD    Am     Am/Bb    Am    Am/Bb
You pull away, so easily.


The rest of the song is the same for every verse.

"I guess that your truth is just the ghost of your lies."
Great lyric.

Anton J. Hyginus
Добавлено: 15.07.2012
Другие материалы по этой песне:
  • Аккорды и текст

Страница создана 25.04.2012
http://primanota.ru/bright-eyes/its-cool-we-can-still-be-friends-chords.htm
Привет, Гость.
Предлагаем пройти революционный курс по гитаре.
Подарок от PrimaNota.Ru, забирай!